  0
SECTION
  2
HEADER
  9
$ACADVER
  1
AC1015
  9
$ACADMAINTVER
 70
     6
  9
$DWGCODEPAGE
  3
ANSI_1254
  9
$INSBASE
 10
0.0
 20
0.0
 30
0.0
  9
$EXTMIN
 10
0.0
 20
0.0
 30
0.0
  9
$EXTMAX
 10
279.4
 20
215.9
 30
0.0
  9
$LIMMIN
 10
0.0
 20
0.0
  9
$LIMMAX
 10
279.4
 20
215.9
  9
$ORTHOMODE
 70
     0
  9
$REGENMODE
 70
     1
  9
$FILLMODE
 70
     1
  9
$QTEXTMODE
 70
     0
  9
$MIRRTEXT
 70
     1
  9
$LTSCALE
 40
1.0
  9
$ATTMODE
 70
     1
  9
$TEXTSIZE
 40
3.5
  9
$TRACEWID
 40
1.0
  9
$TEXTSTYLE
  7
Standard
  9
$CLAYER
  8
0
  9
$CELTYPE
  6
ByLayer
  9
$CECOLOR
 62
   256
  9
$CELTSCALE
 40
1.0
  9
$DISPSILH
 70
     0
  9
$DIMSCALE
 40
1.0
  9
$DIMASZ
 40
3.5
  9
$DIMEXO
 40
1.0
  9
$DIMDLI
 40
3.75
  9
$DIMRND
 40
0.0
  9
$DIMDLE
 40
0.0
  9
$DIMEXE
 40
1.0
  9
$DIMTP
 40
0.0
  9
$DIMTM
 40
0.0
  9
$DIMTXT
 40
3.5
  9
$DIMCEN
 40
2.5
  9
$DIMTSZ
 40
0.0
  9
$DIMTOL
 70
     0
  9
$DIMLIM
 70
     0
  9
$DIMTIH
 70
     1
  9
$DIMTOH
 70
     1
  9
$DIMSE1
 70
     0
  9
$DIMSE2
 70
     0
  9
$DIMTAD
 70
     1
  9
$DIMZIN
 70
     0
  9
$DIMBLK
  1

  9
$DIMASO
 70
     1
  9
$DIMSHO
 70
     1
  9
$DIMPOST
  1

  9
$DIMAPOST
  1

  9
$DIMALT
 70
     0
  9
$DIMALTD
 70
     3
  9
$DIMALTF
 40
0.0393700787
  9
$DIMLFAC
 40
1.0
  9
$DIMTOFL
 70
     1
  9
$DIMTVP
 40
0.0
  9
$DIMTIX
 70
     0
  9
$DIMSOXD
 70
     0
  9
$DIMSAH
 70
     0
  9
$DIMBLK1
  1

  9
$DIMBLK2
  1

  9
$DIMSTYLE
  2
ISO-25
  9
$DIMCLRD
 70
     0
  9
$DIMCLRE
 70
     0
  9
$DIMCLRT
 70
     0
  9
$DIMTFAC
 40
1.0
  9
$DIMGAP
 40
1.524
  9
$DIMJUST
 70
     0
  9
$DIMSD1
 70
     0
  9
$DIMSD2
 70
     0
  9
$DIMTOLJ
 70
     0
  9
$DIMTZIN
 70
     0
  9
$DIMALTZ
 70
     0
  9
$DIMALTTZ
 70
     0
  9
$DIMUPT
 70
     0
  9
$DIMDEC
 70
     2
  9
$DIMTDEC
 70
     2
  9
$DIMALTU
 70
     2
  9
$DIMALTTD
 70
     3
  9
$DIMTXSTY
  7
Standard
  9
$DIMAUNIT
 70
     0
  9
$DIMADEC
 70
     2
  9
$DIMALTRND
 40
0.0
  9
$DIMAZIN
 70
     0
  9
$DIMDSEP
 70
    44
  9
$DIMATFIT
 70
     3
  9
$DIMFRAC
 70
     0
  9
$DIMLDRBLK
  1

  9
$DIMLUNIT
 70
     2
  9
$DIMLWD
 70
    -2
  9
$DIMLWE
 70
    -2
  9
$DIMTMOVE
 70
     0
  9
$LUNITS
 70
     2
  9
$LUPREC
 70
     2
  9
$SKETCHINC
 40
1.0
  9
$FILLETRAD
 40
10.0
  9
$AUNITS
 70
     0
  9
$AUPREC
 70
     2
  9
$MENU
  1
.
  9
$ELEVATION
 40
0.0
  9
$PELEVATION
 40
0.0
  9
$THICKNESS
 40
0.0
  9
$LIMCHECK
 70
     0
  9
$CHAMFERA
 40
0.0
  9
$CHAMFERB
 40
0.0
  9
$CHAMFERC
 40
0.0
  9
$CHAMFERD
 40
0.0
  9
$SKPOLY
 70
     0
  9
$TDCREATE
 40
2459741.614539954
  9
$TDUCREATE
 40
2459741.489539954
  9
$TDUPDATE
 40
2459741.614540139
  9
$TDUUPDATE
 40
2459741.489540139
  9
$TDINDWG
 40
0.0000000116
  9
$TDUSRTIMER
 40
0.0000000116
  9
$USRTIMER
 70
     1
  9
$ANGBASE
 50
0.0
  9
$ANGDIR
 70
     0
  9
$PDMODE
 70
     0
  9
$PDSIZE
 40
-1.0
  9
$PLINEWID
 40
0.0
  9
$SPLFRAME
 70
     0
  9
$SPLINETYPE
 70
     6
  9
$SPLINESEGS
 70
     8
  9
$HANDSEED
  5
146
  9
$SURFTAB1
 70
     6
  9
$SURFTAB2
 70
     6
  9
$SURFTYPE
 70
     6
  9
$SURFU
 70
     6
  9
$SURFV
 70
     6
  9
$UCSBASE
  2

  9
$UCSNAME
  2

  9
$UCSORG
 10
0.0
 20
0.0
 30
0.0
  9
$UCSXDIR
 10
1.0
 20
0.0
 30
0.0
  9
$UCSYDIR
 10
0.0
 20
1.0
 30
0.0
  9
$UCSORTHOREF
  2

  9
$UCSORTHOVIEW
 70
     0
  9
$UCSORGTOP
 10
0.0
 20
0.0
 30
0.0
  9
$UCSORGBOTTOM
 10
0.0
 20
0.0
 30
0.0
  9
$UCSORGLEFT
 10
0.0
 20
0.0
 30
0.0
  9
$UCSORGRIGHT
 10
0.0
 20
0.0
 30
0.0
  9
$UCSORGFRONT
 10
0.0
 20
0.0
 30
0.0
  9
$UCSORGBACK
 10
0.0
 20
0.0
 30
0.0
  9
$PUCSBASE
  2

  9
$PUCSNAME
  2

  9
$PUCSORG
 10
0.0
 20
0.0
 30
0.0
  9
$PUCSXDIR
 10
1.0
 20
0.0
 30
0.0
  9
$PUCSYDIR
 10
0.0
 20
1.0
 30
0.0
  9
$PUCSORTHOREF
  2

  9
$PUCSORTHOVIEW
 70
     0
  9
$PUCSORGTOP
 10
0.0
 20
0.0
 30
0.0
  9
$PUCSORGBOTTOM
 10
0.0
 20
0.0
 30
0.0
  9
$PUCSORGLEFT
 10
0.0
 20
0.0
 30
0.0
  9
$PUCSORGRIGHT
 10
0.0
 20
0.0
 30
0.0
  9
$PUCSORGFRONT
 10
0.0
 20
0.0
 30
0.0
  9
$PUCSORGBACK
 10
0.0
 20
0.0
 30
0.0
  9
$USERI1
 70
     0
  9
$USERI2
 70
     0
  9
$USERI3
 70
     0
  9
$USERI4
 70
     0
  9
$USERI5
 70
     0
  9
$USERR1
 40
0.0
  9
$USERR2
 40
0.0
  9
$USERR3
 40
0.0
  9
$USERR4
 40
0.0
  9
$USERR5
 40
0.0
  9
$WORLDVIEW
 70
     1
  9
$SHADEDGE
 70
     3
  9
$SHADEDIF
 70
    70
  9
$TILEMODE
 70
     1
  9
$MAXACTVP
 70
    64
  9
$PINSBASE
 10
0.0
 20
0.0
 30
0.0
  9
$PLIMCHECK
 70
     0
  9
$PEXTMIN
 10
1.0000000000E+20
 20
1.0000000000E+20
 30
1.0000000000E+20
  9
$PEXTMAX
 10
-1.0000000000E+20
 20
-1.0000000000E+20
 30
-1.0000000000E+20
  9
$PLIMMIN
 10
0.0
 20
0.0
  9
$PLIMMAX
 10
420.0
 20
297.0
  9
$UNITMODE
 70
     0
  9
$VISRETAIN
 70
     1
  9
$PLINEGEN
 70
     0
  9
$PSLTSCALE
 70
     1
  9
$TREEDEPTH
 70
  3020
  9
$CMLSTYLE
  2
Standard
  9
$CMLJUST
 70
     0
  9
$CMLSCALE
 40
20.0
  9
$PROXYGRAPHICS
 70
     1
  9
$MEASUREMENT
 70
     1
  9
$CELWEIGHT
370
    -1
  9
$ENDCAPS
280
     0
  9
$JOINSTYLE
280
     0
  9
$LWDISPLAY
290
     1
  9
$INSUNITS
 70
     4
  9
$HYPERLINKBASE
  1

  9
$STYLESHEET
  1

  9
$XEDIT
290
     1
  9
$CEPSNTYPE
380
     0
  9
$PSTYLEMODE
290
     1
  9
$FINGERPRINTGUID
  2
{2eb1e15b-f533-46aa-8e1d-d79d75e7db90}
  9
$VERSIONGUID
  2
{FAEB1C32-E019-11D5-929B-00C0DF256EC4}
  9
$EXTNAMES
290
     1
  9
$PSVPSCALE
 40
0.0
  9
$OLESTARTUP
290
     0
  0
ENDSEC
  0
SECTION
  2
CLASSES
  0
CLASS
  1
ACDBDICTIONARYWDFLT
  2
AcDbDictionaryWithDefault
  3
ObjectDBX Classes
 90
        0
280
     0
281
     0
  0
CLASS
  1
VISUALSTYLE
  2
AcDbVisualStyle
  3
ObjectDBX Classes
 90
     4095
280
     0
281
     0
  0
CLASS
  1
MATERIAL
  2
AcDbMaterial
  3
ObjectDBX Classes
 90
     1153
280
     0
281
     0
  0
CLASS
  1
SCALE
  2
AcDbScale
  3
ObjectDBX Classes
 90
     1153
280
     0
281
     0
  0
CLASS
  1
TABLESTYLE
  2
AcDbTableStyle
  3
ObjectDBX Classes
 90
     4095
280
     0
281
     0
  0
CLASS
  1
MLEADERSTYLE
  2
AcDbMLeaderStyle
  3
ACDB_MLEADERSTYLE_CLASS
 90
     4095
280
     0
281
     0
  0
CLASS
  1
SUN
  2
AcDbSun
  3
SCENEOE
 90
     1153
280
     0
281
     0
  0
CLASS
  1
ACDBPLACEHOLDER
  2
AcDbPlaceHolder
  3
ObjectDBX Classes
 90
        0
280
     0
281
     0
  0
CLASS
  1
LAYOUT
  2
AcDbLayout
  3
ObjectDBX Classes
 90
        0
280
     0
281
     0
  0
ENDSEC
  0
SECTION
  2
TABLES
  0
TABLE
  2
VPORT
  5
8
330
0
100
AcDbSymbolTable
 70
     1
  0
VPORT
  5
29
330
8
100
AcDbSymbolTableRecord
100
AcDbViewportTableRecord
  2
*Active
 70
     0
 10
0.0
 20
0.0
 11
1.0
 21
1.0
 12
139.7
 22
107.95
 13
0.0
 23
0.0
 14
10.0
 24
10.0
 15
10.0
 25
10.0
 16
0.0
 26
0.0
 36
1.0
 17
0.0
 27
0.0
 37
0.0
 40
215.9
 41
1.2941176471
 42
50.0
 43
0.0
 44
0.0
 50
0.0
 51
0.0
 71
     0
 72
  2000
 73
     1
 74
     3
 75
     0
 76
     0
 77
     0
 78
     0
281
     0
 65
     1
110
0.0
120
0.0
130
0.0
111
1.0
121
0.0
131
0.0
112
0.0
122
1.0
132
0.0
 79
     0
146
0.0
  0
ENDTAB
  0
TABLE
  2
LTYPE
  5
5
330
0
100
AcDbSymbolTable
 70
     6
  0
LTYPE
  5
14
330
5
100
AcDbSymbolTableRecord
100
AcDbLinetypeTableRecord
  2
ByBlock
 70
     0
  3

 72
    65
 73
     0
 40
0.0
  0
LTYPE
  5
15
330
5
100
AcDbSymbolTableRecord
100
AcDbLinetypeTableRecord
  2
ByLayer
 70
     0
  3

 72
    65
 73
     0
 40
0.0
  0
LTYPE
  5
16
330
5
100
AcDbSymbolTableRecord
100
AcDbLinetypeTableRecord
  2
Continuous
 70
     0
  3
Solid line
 72
    65
 73
     0
 40
0.0
  0
LTYPE
  5
6E
330
5
100
AcDbSymbolTableRecord
100
AcDbLinetypeTableRecord
  2
HIDDEN
 70
     0
  3
Hidden __ __ __ __ __ __ __ __ __ __ __ __ __ __
 72
    65
 73
     2
 40
1.905
 49
1.27
 74
     0
 49
-0.635
 74
     0
  0
LTYPE
  5
6F
330
5
100
AcDbSymbolTableRecord
100
AcDbLinetypeTableRecord
  2
PHANTOM
 70
     0
  3
Phantom ______  __  __  ______  __  __  ______
 72
    65
 73
     6
 40
12.7
 49
6.35
 74
     0
 49
-1.27
 74
     0
 49
1.27
 74
     0
 49
-1.27
 74
     0
 49
1.27
 74
     0
 49
-1.27
 74
     0
  0
LTYPE
  5
70
330
5
100
AcDbSymbolTableRecord
100
AcDbLinetypeTableRecord
  2
CENTER
 70
     0
  3
Center ____ _ ____ _ ____ _ ____ _ ____ _ ____
 72
    65
 73
     4
 40
10.16
 49
6.35
 74
     0
 49
-1.27
 74
     0
 49
1.27
 74
     0
 49
-1.27
 74
     0
  0
LTYPE
  5
71
330
5
100
AcDbSymbolTableRecord
100
AcDbLinetypeTableRecord
  2
CENTERX2
 70
     0
  3
Center (2x) ________  __  ________  __  _____
 72
    65
 73
     4
 40
20.32
 49
12.7
 74
     0
 49
-2.54
 74
     0
 49
2.54
 74
     0
 49
-2.54
 74
     0
  0
LTYPE
  5
72
330
5
100
AcDbSymbolTableRecord
100
AcDbLinetypeTableRecord
  2
DOT2
 70
     0
  3
Dot (.5x) ........................................
 72
    65
 73
     2
 40
0.635
 49
0.0
 74
     0
 49
-0.635
 74
     0
  0
ENDTAB
  0
TABLE
  2
LAYER
  5
2
330
0
100
AcDbSymbolTable
 70
    17
  0
LAYER
  5
10
330
2
100
AcDbSymbolTableRecord
100
AcDbLayerTableRecord
  2
0
 70
     0
 62
     7
  6
Continuous
370
    -3
390
F
  0
LAYER
  5
73
330
2
100
AcDbSymbolTableRecord
100
AcDbLayerTableRecord
  2
FORMAT
 70
     0
 62
     7
  6
Continuous
370
    -3
390
F
  0
LAYER
  5
74
330
2
100
AcDbSymbolTableRecord
100
AcDbLayerTableRecord
  2
YARDIMCI_GEOMETRI
 70
     0
 62
    -6
  6
Continuous
290
     0
370
    -3
390
F
  0
LAYER
  5
75
330
2
100
AcDbSymbolTableRecord
100
AcDbLayerTableRecord
  2
SAYFA_CERCEVESI
 70
     0
 62
     7
  6
Continuous
370
    25
390
F
  0
LAYER
  5
76
330
2
100
AcDbSymbolTableRecord
100
AcDbLayerTableRecord
  2
ANTET
 70
     0
 62
     7
  6
Continuous
370
    -3
390
F
  0
LAYER
  5
77
330
2
100
AcDbSymbolTableRecord
100
AcDbLayerTableRecord
  2
OLCU
 70
     0
 62
   150
  6
Continuous
370
    -3
390
F
  0
LAYER
  5
78
330
2
100
AcDbSymbolTableRecord
100
AcDbLayerTableRecord
  2
METIN
 70
     0
 62
    96
  6
Continuous
370
    -3
390
F
  0
LAYER
  5
79
330
2
100
AcDbSymbolTableRecord
100
AcDbLayerTableRecord
  2
BALON
 70
     0
 62
     5
  6
Continuous
370
    -3
390
F
  0
LAYER
  5
7A
330
2
100
AcDbSymbolTableRecord
100
AcDbLayerTableRecord
  2
VURGU
 70
     0
 62
     7
  6
Continuous
370
    -3
390
F
  0
LAYER
  5
7B
330
2
100
AcDbSymbolTableRecord
100
AcDbLayerTableRecord
  2
SILIK
 70
     0
 62
     7
  6
Continuous
370
    -3
390
F
  0
LAYER
  5
7C
330
2
100
AcDbSymbolTableRecord
100
AcDbLayerTableRecord
  2
MODEL
 70
     0
 62
     7
  6
Continuous
370
    -3
390
F
  0
LAYER
  5
7D
330
2
100
AcDbSymbolTableRecord
100
AcDbLayerTableRecord
  2
DETAYLANDıRMA
 70
     0
 62
   190
  6
Continuous
370
    -3
390
F
  0
LAYER
  5
7E
330
2
100
AcDbSymbolTableRecord
100
AcDbLayerTableRecord
  2
TOLERANS
 70
     0
 62
   230
  6
Continuous
370
    -3
390
F
  0
LAYER
  5
7F
330
2
100
AcDbSymbolTableRecord
100
AcDbLayerTableRecord
  2
MERKEZ_CIZGILERI
 70
     0
 62
    30
  6
Continuous
370
    -3
390
F
  0
LAYER
  5
80
330
2
100
AcDbSymbolTableRecord
100
AcDbLayerTableRecord
  2
KESIT-DETAY_CIZGILERI
 70
     0
 62
     7
  6
Continuous
370
    -3
390
F
  0
LAYER
  5
81
330
2
100
AcDbSymbolTableRecord
100
AcDbLayerTableRecord
  2
\U+041E\U+0421\U+0415\U+0412\U+042B\U+0415
 70
     0
 62
     7
  6
Continuous
370
    -3
390
F
  0
LAYER
  5
82
330
2
100
AcDbSymbolTableRecord
100
AcDbLayerTableRecord
  2
\U+0412\U+041E\U+0414\U+042F\U+041D\U+042B\U+0415_\U+0417\U+041D\U+0410\U+041A\U+0418
 70
     0
 62
    11
  6
Continuous
370
    -3
390
F
  0
ENDTAB
  0
TABLE
  2
STYLE
  5
3
330
0
100
AcDbSymbolTable
 70
     1
  0
STYLE
  5
11
330
3
100
AcDbSymbolTableRecord
100
AcDbTextStyleTableRecord
  2
Standard
 70
     0
 40
0.0
 41
1.0
 50
0.0
 71
     0
 42
3.5
  3
txt
  4

  0
ENDTAB
  0
TABLE
  2
VIEW
  5
6
330
0
100
AcDbSymbolTable
 70
     0
  0
ENDTAB
  0
TABLE
  2
UCS
  5
7
330
0
100
AcDbSymbolTable
 70
     0
  0
ENDTAB
  0
TABLE
  2
APPID
  5
9
330
0
100
AcDbSymbolTable
 70
     1
  0
APPID
  5
12
330
9
100
AcDbSymbolTableRecord
100
AcDbRegAppTableRecord
  2
ACAD
 70
     0
  0
ENDTAB
  0
TABLE
  2
DIMSTYLE
  5
A
330
0
100
AcDbSymbolTable
 70
     1
100
AcDbDimStyleTable
  0
DIMSTYLE
105
27
330
A
100
AcDbSymbolTableRecord
100
AcDbDimStyleTableRecord
  2
ISO-25
 70
     0
 41
2.5
 42
0.625
 43
3.75
 44
1.25
 73
     0
 74
     0
 77
     1
 78
     8
140
2.5
141
2.5
143
0.0393700787
147
0.625
171
     3
172
     1
178
     0
271
     2
272
     2
274
     3
278
    44
283
     0
284
     8
340
11
  0
ENDTAB
  0
TABLE
  2
BLOCK_RECORD
  5
1
330
0
100
AcDbSymbolTable
 70
     5
  0
BLOCK_RECORD
  5
1F
330
1
100
AcDbSymbolTableRecord
100
AcDbBlockTableRecord
  2
*Model_Space
340
22
  0
BLOCK_RECORD
  5
1B
330
1
100
AcDbSymbolTableRecord
100
AcDbBlockTableRecord
  2
*Paper_Space
340
1E
  0
BLOCK_RECORD
  5
23
330
1
100
AcDbSymbolTableRecord
100
AcDbBlockTableRecord
  2
*Paper_Space0
340
26
  0
BLOCK_RECORD
  5
C9
330
1
100
AcDbSymbolTableRecord
100
AcDbBlockTableRecord
  2
SW_CENTERMARKSYMBOL_0
340
0
102
{BLKREFS
331
D4
102
}
  0
BLOCK_RECORD
  5
F4
330
1
100
AcDbSymbolTableRecord
100
AcDbBlockTableRecord
  2
SW_CENTERMARKSYMBOL_1
340
0
102
{BLKREFS
331
FF
102
}
  0
BLOCK_RECORD
  5
100
330
1
100
AcDbSymbolTableRecord
100
AcDbBlockTableRecord
  2
SW_CENTERMARKSYMBOL_2
340
0
102
{BLKREFS
331
10B
102
}
  0
BLOCK_RECORD
  5
10C
330
1
100
AcDbSymbolTableRecord
100
AcDbBlockTableRecord
  2
SW_CENTERMARKSYMBOL_3
340
0
102
{BLKREFS
331
117
102
}
  0
ENDTAB
  0
ENDSEC
  0
SECTION
  2
BLOCKS
  0
BLOCK
  5
20
330
1F
100
AcDbEntity
  8
0
100
AcDbBlockBegin
  2
*Model_Space
 70
     0
 10
0.0
 20
0.0
 30
0.0
  3
*Model_Space
  1

  0
ENDBLK
  5
21
330
1F
100
AcDbEntity
  8
0
100
AcDbBlockEnd
  0
BLOCK
  5
1C
330
1B
100
AcDbEntity
 67
     1
  8
0
100
AcDbBlockBegin
  2
*Paper_Space
 70
     0
 10
0.0
 20
0.0
 30
0.0
  3
*Paper_Space
  1

  0
ENDBLK
  5
1D
330
1B
100
AcDbEntity
 67
     1
  8
0
100
AcDbBlockEnd
  0
BLOCK
  5
24
330
23
100
AcDbEntity
  8
0
100
AcDbBlockBegin
  2
*Paper_Space0
 70
     0
 10
0.0
 20
0.0
 30
0.0
  3
*Paper_Space0
  1

  0
ENDBLK
  5
25
330
23
100
AcDbEntity
  8
0
100
AcDbBlockEnd
  0
BLOCK
  5
CA
330
C9
100
AcDbEntity
  8
0
100
AcDbBlockBegin
  2
SW_CENTERMARKSYMBOL_0
 70
     0
 10
0.0
 20
0.0
 30
0.0
  3
SW_CENTERMARKSYMBOL_0
  1

  0
LINE
  5
CC
330
C9
100
AcDbEntity
  8
FORMAT
 62
     0
100
AcDbLine
 10
0.0
 20
0.0
 30
0.0
 11
0.0
 21
2.5
 31
0.0
  0
LINE
  5
CD
330
C9
100
AcDbEntity
  8
FORMAT
 62
     0
100
AcDbLine
 10
0.0
 20
0.0
 30
0.0
 11
-2.5
 21
0.0
 31
0.0
  0
LINE
  5
CE
330
C9
100
AcDbEntity
  8
FORMAT
 62
     0
100
AcDbLine
 10
0.0
 20
0.0
 30
0.0
 11
0.0
 21
-2.5
 31
0.0
  0
LINE
  5
CF
330
C9
100
AcDbEntity
  8
FORMAT
 62
     0
100
AcDbLine
 10
0.0
 20
0.0
 30
0.0
 11
2.5
 21
0.0
 31
0.0
  0
LINE
  5
D0
330
C9
100
AcDbEntity
  8
FORMAT
 62
     0
100
AcDbLine
 10
0.0
 20
5.0
 30
0.0
 11
0.0
 21
28.2
 31
0.0
  0
LINE
  5
D1
330
C9
100
AcDbEntity
  8
FORMAT
 62
     0
100
AcDbLine
 10
-5.0
 20
0.0
 30
0.0
 11
-28.2
 21
0.0
 31
0.0
  0
LINE
  5
D2
330
C9
100
AcDbEntity
  8
FORMAT
 62
     0
100
AcDbLine
 10
0.0
 20
-5.0
 30
0.0
 11
0.0
 21
-28.2
 31
0.0
  0
LINE
  5
D3
330
C9
100
AcDbEntity
  8
FORMAT
 62
     0
100
AcDbLine
 10
5.0
 20
0.0
 30
0.0
 11
28.2
 21
0.0
 31
0.0
  0
ENDBLK
  5
CB
330
C9
100
AcDbEntity
  8
0
100
AcDbBlockEnd
  0
BLOCK
  5
F5
330
F4
100
AcDbEntity
  8
0
100
AcDbBlockBegin
  2
SW_CENTERMARKSYMBOL_1
 70
     0
 10
0.0
 20
0.0
 30
0.0
  3
SW_CENTERMARKSYMBOL_1
  1

  0
LINE
  5
F7
330
F4
100
AcDbEntity
  8
FORMAT
 62
     0
100
AcDbLine
 10
0.0
 20
0.0
 30
0.0
 11
0.0
 21
2.5
 31
0.0
  0
LINE
  5
F8
330
F4
100
AcDbEntity
  8
FORMAT
 62
     0
100
AcDbLine
 10
0.0
 20
0.0
 30
0.0
 11
-2.5
 21
0.0
 31
0.0
  0
LINE
  5
F9
330
F4
100
AcDbEntity
  8
FORMAT
 62
     0
100
AcDbLine
 10
0.0
 20
0.0
 30
0.0
 11
0.0
 21
-2.5
 31
0.0
  0
LINE
  5
FA
330
F4
100
AcDbEntity
  8
FORMAT
 62
     0
100
AcDbLine
 10
0.0
 20
0.0
 30
0.0
 11
2.5
 21
0.0
 31
0.0
  0
LINE
  5
FB
330
F4
100
AcDbEntity
  8
FORMAT
 62
     0
100
AcDbLine
 10
0.0
 20
5.0
 30
0.0
 11
0.0
 21
34.0
 31
0.0
  0
LINE
  5
FC
330
F4
100
AcDbEntity
  8
FORMAT
 62
     0
100
AcDbLine
 10
-5.0
 20
0.0
 30
0.0
 11
-34.0
 21
0.0
 31
0.0
  0
LINE
  5
FD
330
F4
100
AcDbEntity
  8
FORMAT
 62
     0
100
AcDbLine
 10
0.0
 20
-5.0
 30
0.0
 11
0.0
 21
-34.0
 31
0.0
  0
LINE
  5
FE
330
F4
100
AcDbEntity
  8
FORMAT
 62
     0
100
AcDbLine
 10
5.0
 20
0.0
 30
0.0
 11
34.0
 21
0.0
 31
0.0
  0
ENDBLK
  5
F6
330
F4
100
AcDbEntity
  8
0
100
AcDbBlockEnd
  0
BLOCK
  5
101
330
100
100
AcDbEntity
  8
0
100
AcDbBlockBegin
  2
SW_CENTERMARKSYMBOL_2
 70
     0
 10
0.0
 20
0.0
 30
0.0
  3
SW_CENTERMARKSYMBOL_2
  1

  0
LINE
  5
103
330
100
100
AcDbEntity
  8
FORMAT
 62
     0
100
AcDbLine
 10
0.0
 20
0.0
 30
0.0
 11
0.0
 21
2.5
 31
0.0
  0
LINE
  5
104
330
100
100
AcDbEntity
  8
FORMAT
 62
     0
100
AcDbLine
 10
0.0
 20
0.0
 30
0.0
 11
-2.5
 21
0.0
 31
0.0
  0
LINE
  5
105
330
100
100
AcDbEntity
  8
FORMAT
 62
     0
100
AcDbLine
 10
0.0
 20
0.0
 30
0.0
 11
0.0
 21
-2.5
 31
0.0
  0
LINE
  5
106
330
100
100
AcDbEntity
  8
FORMAT
 62
     0
100
AcDbLine
 10
0.0
 20
0.0
 30
0.0
 11
2.5
 21
0.0
 31
0.0
  0
LINE
  5
107
330
100
100
AcDbEntity
  8
FORMAT
 62
     0
100
AcDbLine
 10
0.0
 20
5.0
 30
0.0
 11
0.0
 21
9.5
 31
0.0
  0
LINE
  5
108
330
100
100
AcDbEntity
  8
FORMAT
 62
     0
100
AcDbLine
 10
-5.0
 20
0.0
 30
0.0
 11
-9.5
 21
0.0
 31
0.0
  0
LINE
  5
109
330
100
100
AcDbEntity
  8
FORMAT
 62
     0
100
AcDbLine
 10
0.0
 20
-5.0
 30
0.0
 11
0.0
 21
-9.5
 31
0.0
  0
LINE
  5
10A
330
100
100
AcDbEntity
  8
FORMAT
 62
     0
100
AcDbLine
 10
5.0
 20
0.0
 30
0.0
 11
9.5
 21
0.0
 31
0.0
  0
ENDBLK
  5
102
330
100
100
AcDbEntity
  8
0
100
AcDbBlockEnd
  0
BLOCK
  5
10D
330
10C
100
AcDbEntity
  8
0
100
AcDbBlockBegin
  2
SW_CENTERMARKSYMBOL_3
 70
     0
 10
0.0
 20
0.0
 30
0.0
  3
SW_CENTERMARKSYMBOL_3
  1

  0
LINE
  5
10F
330
10C
100
AcDbEntity
  8
FORMAT
 62
     0
100
AcDbLine
 10
0.0
 20
0.0
 30
0.0
 11
0.0
 21
2.5
 31
0.0
  0
LINE
  5
110
330
10C
100
AcDbEntity
  8
FORMAT
 62
     0
100
AcDbLine
 10
0.0
 20
0.0
 30
0.0
 11
-2.5
 21
0.0
 31
0.0
  0
LINE
  5
111
330
10C
100
AcDbEntity
  8
FORMAT
 62
     0
100
AcDbLine
 10
0.0
 20
0.0
 30
0.0
 11
0.0
 21
-2.5
 31
0.0
  0
LINE
  5
112
330
10C
100
AcDbEntity
  8
FORMAT
 62
     0
100
AcDbLine
 10
0.0
 20
0.0
 30
0.0
 11
2.5
 21
0.0
 31
0.0
  0
LINE
  5
113
330
10C
100
AcDbEntity
  8
FORMAT
 62
     0
100
AcDbLine
 10
0.0
 20
5.0
 30
0.0
 11
0.0
 21
9.5
 31
0.0
  0
LINE
  5
114
330
10C
100
AcDbEntity
  8
FORMAT
 62
     0
100
AcDbLine
 10
-5.0
 20
0.0
 30
0.0
 11
-9.5
 21
0.0
 31
0.0
  0
LINE
  5
115
330
10C
100
AcDbEntity
  8
FORMAT
 62
     0
100
AcDbLine
 10
0.0
 20
-5.0
 30
0.0
 11
0.0
 21
-9.5
 31
0.0
  0
LINE
  5
116
330
10C
100
AcDbEntity
  8
FORMAT
 62
     0
100
AcDbLine
 10
5.0
 20
0.0
 30
0.0
 11
9.5
 21
0.0
 31
0.0
  0
ENDBLK
  5
10E
330
10C
100
AcDbEntity
  8
0
100
AcDbBlockEnd
  0
ENDSEC
  0
SECTION
  2
ENTITIES
  0
LINE
  5
83
330
1F
100
AcDbEntity
  8
0
  6
Continuous
 62
     7
370
    25
100
AcDbLine
 10
170.8834569179
 20
-16.4109428571
 30
0.0
 11
220.8834569179
 21
-16.4109428571
 31
0.0
  0
LINE
  5
84
330
1F
100
AcDbEntity
  8
0
  6
Continuous
 62
     7
370
    25
100
AcDbLine
 10
60.8834569179
 20
-16.4109428571
 30
0.0
 11
110.8834569179
 21
-16.4109428571
 31
0.0
  0
LINE
  5
85
330
1F
100
AcDbEntity
  8
0
  6
Continuous
 62
     7
370
    25
100
AcDbLine
 10
63.9726950715
 20
177.5890571429
 30
0.0
 11
60.8834569179
 21
177.5890571429
 31
0.0
  0
LINE
  5
86
330
1F
100
AcDbEntity
  8
0
  6
Continuous
 62
     7
370
    25
100
AcDbLine
 10
109.4964213732
 20
177.5890571429
 30
0.0
 11
77.8756729514
 21
177.5890571429
 31
0.0
  0
LINE
  5
87
330
1F
100
AcDbEntity
  8
0
  6
Continuous
 62
     7
370
    25
100
AcDbLine
 10
203.9726950715
 20
177.5890571429
 30
0.0
 11
172.2829877881
 21
177.5890571429
 31
0.0
  0
LINE
  5
88
330
1F
100
AcDbEntity
  8
0
  6
Continuous
 62
     7
370
    25
100
AcDbLine
 10
220.8834569179
 20
177.5890571429
 30
0.0
 11
217.8756729514
 21
177.5890571429
 31
0.0
  0
LINE
  5
89
330
1F
100
AcDbEntity
  8
0
  6
Continuous
 62
     7
370
    25
100
AcDbLine
 10
109.3834569179
 20
245.5890571429
 30
0.0
 11
109.3834569179
 21
177.5524342326
 31
0.0
  0
LINE
  5
8A
330
1F
100
AcDbEntity
  8
0
  6
Continuous
 62
     7
370
    25
100
AcDbLine
 10
172.3834569179
 20
177.5564825696
 30
0.0
 11
172.3834569179
 21
245.5890571429
 31
0.0
  0
LINE
  5
8B
330
1F
100
AcDbEntity
  8
0
  6
Continuous
 62
     7
370
    25
100
AcDbLine
 10
63.8834569179
 20
192.5890571429
 30
0.0
 11
63.8834569179
 21
177.5890571429
 31
0.0
  0
LINE
  5
8C
330
1F
100
AcDbEntity
  8
0
  6
Continuous
 62
     7
370
    25
100
AcDbLine
 10
77.8834569179
 20
177.5885244204
 30
0.0
 11
77.8834569179
 21
192.5890571429
 31
0.0
  0
LINE
  5
8D
330
1F
100
AcDbEntity
  8
0
  6
Continuous
 62
     7
370
    25
100
AcDbLine
 10
203.8834569179
 20
192.5890571429
 30
0.0
 11
203.8834569179
 21
177.5890571429
 31
0.0
  0
LINE
  5
8E
330
1F
100
AcDbEntity
  8
0
  6
Continuous
 62
     7
370
    25
100
AcDbLine
 10
217.8834569179
 20
177.5885244204
 30
0.0
 11
217.8834569179
 21
192.5890571429
 31
0.0
  0
LINE
  5
8F
330
1F
100
AcDbEntity
  8
0
  6
Continuous
 62
     7
370
    25
100
AcDbLine
 10
220.8834569179
 20
82.5890571429
 30
0.0
 11
60.8834569179
 21
82.5890571429
 31
0.0
  0
LINE
  5
90
330
1F
100
AcDbEntity
  8
0
  6
Continuous
 62
     7
370
    25
100
AcDbLine
 10
60.8834569179
 20
89.5890571429
 30
0.0
 11
60.8834569179
 21
82.5890571429
 31
0.0
  0
LINE
  5
91
330
1F
100
AcDbEntity
  8
0
  6
Continuous
 62
     7
370
    25
100
AcDbLine
 10
220.8834569179
 20
89.5890571429
 30
0.0
 11
60.8834569179
 21
89.5890571429
 31
0.0
  0
LINE
  5
92
330
1F
100
AcDbEntity
  8
0
  6
Continuous
 62
     7
370
    25
100
AcDbLine
 10
220.8834569179
 20
89.5890571429
 30
0.0
 11
220.8834569179
 21
82.5890571429
 31
0.0
  0
LINE
  5
93
330
1F
100
AcDbEntity
  8
0
  6
Continuous
 62
     7
370
    25
100
AcDbLine
 10
60.8834569179
 20
78.5890571429
 30
0.0
 11
60.8834569179
 21
71.5890571429
 31
0.0
  0
LINE
  5
94
330
1F
100
AcDbEntity
  8
0
  6
Continuous
 62
     7
370
    25
100
AcDbLine
 10
220.8834569179
 20
78.5890571429
 30
0.0
 11
60.8834569179
 21
78.5890571429
 31
0.0
  0
LINE
  5
95
330
1F
100
AcDbEntity
  8
0
  6
Continuous
 62
     7
370
    25
100
AcDbLine
 10
220.8834569179
 20
78.5890571429
 30
0.0
 11
220.8834569179
 21
71.5890571429
 31
0.0
  0
LINE
  5
96
330
1F
100
AcDbEntity
  8
0
  6
Continuous
 62
     7
370
    25
100
AcDbLine
 10
220.8834569179
 20
71.5890571429
 30
0.0
 11
60.8834569179
 21
71.5890571429
 31
0.0
  0
SPLINE
  5
97
330
1F
100
AcDbEntity
  8
0
  6
Continuous
 62
     7
370
    25
100
AcDbSpline
210
0.0
220
0.0
230
1.0
 70
     8
 71
     3
 72
    12
 73
     8
 74
     0
 42
0.00000001
 43
0.00000001
 40
0.0
 40
0.0
 40
0.0
 40
0.0
 40
0.2144572489416968
 40
0.4289009548163589
 40
0.643695974025615
 40
0.8587210172394718
 40
1.0
 40
1.0
 40
1.0
 40
1.0
 10
70.88345691788534
 20
177.3361501224396
 30
0.0
 10
70.09789621443785
 20
177.3418646433385
 30
0.0
 10
68.52682441603744
 20
177.3532933242616
 30
0.0
 10
66.42745310640849
 20
177.4335745869013
 30
0.0
 10
64.85846905351839
 20
177.5205386057032
 30
0.0
 10
63.96684647877485
 20
177.5829709187601
 30
0.0
 10
63.97103447778492
 20
177.582760110263
 30
0.0
 10
63.97269507153859
 20
177.5826765220691
 30
0.0
  0
SPLINE
  5
98
330
1F
100
AcDbEntity
  8
0
  6
Continuous
 62
     7
370
    25
100
AcDbSpline
210
0.0
220
0.0
230
1.0
 70
     8
 71
     3
 72
    13
 73
     9
 74
     0
 42
0.00000001
 43
0.00000001
 40
0.0
 40
0.0
 40
0.0
 40
0.0
 40
0.004317606076624
 40
0.2184799288714592
 40
0.4326382001915131
 40
0.6472788307755899
 40
0.8621394886781332
 40
1.0
 40
1.0
 40
1.0
 40
1.0
 10
77.87567295137765
 20
177.5885102644413
 30
0.0
 10
77.87826354480447
 20
177.5886922414101
 30
0.0
 10
78.00935300910011
 20
177.5979006579449
 30
0.0
 10
77.54183324903315
 20
177.5640096854346
 30
0.0
 10
76.44567544086627
 20
177.4921846296025
 30
0.0
 10
74.63108490266966
 20
177.401930121659
 30
0.0
 10
72.67762062277896
 20
177.3446049527471
 30
0.0
 10
71.38764273557904
 20
177.3385260514145
 30
0.0
 10
70.88345691788534
 20
177.3361501224396
 30
0.0
  0
SPLINE
  5
99
330
1F
100
AcDbEntity
  8
0
  6
Continuous
 62
     7
370
    25
100
AcDbSpline
210
0.0
220
0.0
230
1.0
 70
     8
 71
     3
 72
    18
 73
    14
 74
     0
 42
0.00000001
 43
0.00000001
 40
0.0
 40
0.0
 40
0.0
 40
0.0
 40
0.1019417139019594
 40
0.2069474665990029
 40
0.3088605750136525
 40
0.4135496734692666
 40
0.5188964647294002
 40
0.6271478550031861
 40
0.7349053601890163
 40
0.7905061673543
 40
0.8461051095091856
 40
0.9502442080857669
 40
1.0
 40
1.0
 40
1.0
 40
1.0
 10
140.8834569178854
 20
172.331904275481
 30
0.0
 10
139.1902862143562
 20
172.359299899809
 30
0.0
 10
135.7530535624508
 20
172.4149145724841
 30
0.0
 10
130.7727114214987
 20
172.848394920524
 30
0.0
 10
126.0418009819944
 20
173.4879869023743
 30
0.0
 10
121.7136866139235
 20
174.2846108502906
 30
0.0
 10
117.8259508432482
 20
175.1633864427241
 30
0.0
 10
114.5359675021036
 20
176.0263814378057
 30
0.0
 10
112.376419015405
 20
176.6547173477902
 30
0.0
 10
111.0504498252047
 20
177.059311726452
 30
0.0
 10
110.0593686670719
 20
177.3701018990297
 30
0.0
 10
109.394712061402
 20
177.585369923432
 30
0.0
 10
109.4715718254309
 20
177.5604800913668
 30
0.0
 10
109.4964213731541
 20
177.5524329541222
 30
0.0
  0
SPLINE
  5
9A
330
1F
100
AcDbEntity
  8
0
  6
Continuous
 62
     7
370
    25
100
AcDbSpline
210
0.0
220
0.0
230
1.0
 70
     8
 71
     3
 72
    17
 73
    13
 74
     0
 42
0.00000001
 43
0.00000001
 40
0.0
 40
0.0
 40
0.0
 40
0.0
 40
0.0569806324829031
 40
0.1617908775820281
 40
0.2622321029943673
 40
0.365397452120776
 40
0.4694595261427824
 40
0.5763302576760742
 40
0.6840396786452461
 40
0.7949805709878808
 40
0.8960176619890191
 40
1.0
 40
1.0
 40
1.0
 40
1.0
 10
172.2829877880556
 20
177.5564798520869
 30
0.0
 10
172.2972436359644
 20
177.5610865222527
 30
0.0
 10
172.3377217079575
 20
177.5741667071572
 30
0.0
 10
171.4864987948977
 20
177.2988692714629
 30
0.0
 10
169.8362117276002
 20
176.7858236154684
 30
0.0
 10
167.4165562662066
 20
176.0792678643492
 30
0.0
 10
164.2648421883029
 20
175.2443698798935
 30
0.0
 10
160.431833890143
 20
174.3623629800283
 30
0.0
 10
155.9559229543178
 20
173.5213408172173
 30
0.0
 10
151.107270364335
 20
172.858804783862
 30
0.0
 10
146.015684624657
 20
172.4163930588313
 30
0.0
 10
142.6105054111548
 20
172.3603356379068
 30
0.0
 10
140.8834569178854
 20
172.331904275481
 30
0.0
  0
SPLINE
  5
9B
330
1F
100
AcDbEntity
  8
0
  6
Continuous
 62
     7
370
    25
100
AcDbSpline
210
0.0
220
0.0
230
1.0
 70
     8
 71
     3
 72
    12
 73
     8
 74
     0
 42
0.00000001
 43
0.00000001
 40
0.0
 40
0.0
 40
0.0
 40
0.0
 40
0.2144572489416968
 40
0.4289009548163589
 40
0.643695974025615
 40
0.8587210172394718
 40
1.0
 40
1.0
 40
1.0
 40
1.0
 10
210.8834569178854
 20
177.3361501224396
 30
0.0
 10
210.0978962144379
 20
177.3418646433385
 30
0.0
 10
208.5268244160374
 20
177.3532933242616
 30
0.0
 10
206.4274531064085
 20
177.4335745869013
 30
0.0
 10
204.8584690535184
 20
177.5205386057032
 30
0.0
 10
203.9668464787749
 20
177.5829709187601
 30
0.0
 10
203.9710344777849
 20
177.582760110263
 30
0.0
 10
203.9726950715386
 20
177.5826765220691
 30
0.0
  0
SPLINE
  5
9C
330
1F
100
AcDbEntity
  8
0
  6
Continuous
 62
     7
370
    25
100
AcDbSpline
210
0.0
220
0.0
230
1.0
 70
     8
 71
     3
 72
    13
 73
     9
 74
     0
 42
0.00000001
 43
0.00000001
 40
0.0
 40
0.0
 40
0.0
 40
0.0
 40
0.0043176060766246
 40
0.2184799288714597
 40
0.4326382001915134
 40
0.6472788307755902
 40
0.8621394886781332
 40
1.0
 40
1.0
 40
1.0
 40
1.0
 10
217.8756729513777
 20
177.5885102644413
 30
0.0
 10
217.8782635448045
 20
177.5886922414101
 30
0.0
 10
218.0093530091004
 20
177.597900657945
 30
0.0
 10
217.5418332490331
 20
177.5640096854346
 30
0.0
 10
216.4456754408664
 20
177.4921846296025
 30
0.0
 10
214.6310849026697
 20
177.401930121659
 30
0.0
 10
212.677620622779
 20
177.3446049527471
 30
0.0
 10
211.387642735579
 20
177.3385260514145
 30
0.0
 10
210.8834569178854
 20
177.3361501224396
 30
0.0
  0
LINE
  5
9D
330
1F
100
AcDbEntity
  8
0
  6
Continuous
 62
     7
370
    25
100
AcDbLine
 10
110.8834569179
 20
70.5890571429
 30
0.0
 11
170.8834569179
 21
70.5890571429
 31
0.0
  0
LINE
  5
9E
330
1F
100
AcDbEntity
  8
0
  6
Continuous
 62
     7
370
    25
100
AcDbLine
 10
110.8834569179
 20
-16.4109428571
 30
0.0
 11
110.8834569179
 21
70.5890571429
 31
0.0
  0
LINE
  5
9F
330
1F
100
AcDbEntity
  8
0
  6
Continuous
 62
     7
370
    25
100
AcDbLine
 10
170.8834569179
 20
40.6994401449
 30
0.0
 11
110.8834569179
 21
40.6994401449
 31
0.0
  0
LINE
  5
A0
330
1F
100
AcDbEntity
  8
0
  6
Continuous
 62
     7
370
    25
100
AcDbLine
 10
170.8834569179
 20
70.5890571429
 30
0.0
 11
170.8834569179
 21
-16.4109428571
 31
0.0
  0
LINE
  5
A1
330
1F
100
AcDbEntity
  8
0
  6
Continuous
 62
     7
370
    25
100
AcDbLine
 10
60.8834569179
 20
71.5890571429
 30
0.0
 11
60.8834569179
 21
-16.4109428571
 31
0.0
  0
LINE
  5
A2
330
1F
100
AcDbEntity
  8
0
  6
Continuous
 62
     7
370
    25
100
AcDbLine
 10
60.8834569179
 20
177.5890571429
 30
0.0
 11
60.8834569179
 21
89.5890571429
 31
0.0
  0
LINE
  5
A3
330
1F
100
AcDbEntity
  8
0
  6
Continuous
 62
     7
370
    25
100
AcDbLine
 10
220.8834569179
 20
71.5890571429
 30
0.0
 11
220.8834569179
 21
-16.4109428571
 31
0.0
  0
LINE
  5
A4
330
1F
100
AcDbEntity
  8
0
  6
Continuous
 62
     7
370
    25
100
AcDbLine
 10
220.8834569179
 20
177.5890571429
 30
0.0
 11
220.8834569179
 21
89.5890571429
 31
0.0
  0
LINE
  5
A5
330
1F
100
AcDbEntity
  8
0
  6
Continuous
 62
     7
370
    25
100
AcDbLine
 10
110.8834569179
 20
63.7907969876
 30
0.0
 11
170.8834569179
 21
63.7907969876
 31
0.0
  0
LINE
  5
A6
330
1F
100
AcDbEntity
  8
0
  6
Continuous
 62
     7
370
    25
100
AcDbLine
 10
60.8834569179
 20
82.5890571429
 30
0.0
 11
60.8834569179
 21
78.5890571429
 31
0.0
  0
LINE
  5
A7
330
1F
100
AcDbEntity
  8
0
  6
Continuous
 62
     7
370
    25
100
AcDbLine
 10
220.8834569179
 20
82.5890571429
 30
0.0
 11
220.8834569179
 21
78.5890571429
 31
0.0
  0
LINE
  5
A8
330
1F
100
AcDbEntity
  8
0
  6
Continuous
 62
     7
370
    25
100
AcDbLine
 10
140.8834569179
 20
245.5890571429
 30
0.0
 11
172.3834569179
 21
245.5890571429
 31
0.0
  0
LINE
  5
A9
330
1F
100
AcDbEntity
  8
0
  6
Continuous
 62
     7
370
    25
100
AcDbLine
 10
109.3834569179
 20
245.5890571429
 30
0.0
 11
140.8834569179
 21
245.5890571429
 31
0.0
  0
LINE
  5
AA
330
1F
100
AcDbEntity
  8
0
  6
Continuous
 62
     7
370
    25
100
AcDbLine
 10
70.8834569179
 20
192.5890571429
 30
0.0
 11
77.8834569179
 21
192.5890571429
 31
0.0
  0
LINE
  5
AB
330
1F
100
AcDbEntity
  8
0
  6
Continuous
 62
     7
370
    25
100
AcDbLine
 10
63.8834569179
 20
192.5890571429
 30
0.0
 11
70.8834569179
 21
192.5890571429
 31
0.0
  0
LINE
  5
AC
330
1F
100
AcDbEntity
  8
0
  6
Continuous
 62
     7
370
    25
100
AcDbLine
 10
210.8834569179
 20
192.5890571429
 30
0.0
 11
203.8834569179
 21
192.5890571429
 31
0.0
  0
LINE
  5
AD
330
1F
100
AcDbEntity
  8
0
  6
Continuous
 62
     7
370
    25
100
AcDbLine
 10
217.8834569179
 20
192.5890571429
 30
0.0
 11
210.8834569179
 21
192.5890571429
 31
0.0
  0
LINE
  5
AE
330
1F
100
AcDbEntity
  8
0
  6
Continuous
 62
     7
370
    25
100
AcDbLine
 10
389.8079487486
 20
192.5890571429
 30
0.0
 11
389.8079487486
 21
177.3423147186
 31
0.0
  0
LINE
  5
AF
330
1F
100
AcDbEntity
  8
0
  6
Continuous
 62
     7
370
    25
100
AcDbLine
 10
403.8079487486
 20
177.3361501224
 30
0.0
 11
403.8079487486
 21
192.5890571429
 31
0.0
  0
LINE
  5
B0
330
1F
100
AcDbEntity
  8
0
  6
Continuous
 62
     7
370
    25
100
AcDbLine
 10
365.3079487486
 20
245.5890571429
 30
0.0
 11
365.3079487486
 21
172.3420046574
 31
0.0
  0
LINE
  5
B1
330
1F
100
AcDbEntity
  8
0
  6
Continuous
 62
     7
370
    25
100
AcDbLine
 10
428.3079487486
 20
172.3319042755
 30
0.0
 11
428.3079487486
 21
245.5890571429
 31
0.0
  0
LINE
  5
B2
330
1F
100
AcDbEntity
  8
0
  6
Continuous
 62
     7
370
    25
100
AcDbLine
 10
493.3895204897
 20
89.5890571429
 30
0.0
 11
508.3895204897
 21
89.5890571429
 31
0.0
  0
LINE
  5
B3
330
1F
100
AcDbEntity
  8
0
  6
Continuous
 62
     7
370
    25
100
AcDbLine
 10
508.3895204897
 20
89.5890571429
 30
0.0
 11
508.3895204897
 21
82.5890571429
 31
0.0
  0
LINE
  5
B4
330
1F
100
AcDbEntity
  8
0
  6
Continuous
 62
     7
370
    25
100
AcDbLine
 10
508.3895204897
 20
82.5890571429
 30
0.0
 11
486.7857237822
 21
82.5890571429
 31
0.0
  0
ARC
  5
B5
330
1F
100
AcDbEntity
  8
0
  6
Continuous
 62
     7
370
    25
100
AcDbCircle
 10
396.8079487486
 20
80.5890571429
 30
0.0
 40
90.00000000000007
100
AcDbArc
 50
1.2733443614
 51
358.7266556386
  0
LINE
  5
B6
330
1F
100
AcDbEntity
  8
0
  6
Continuous
 62
     7
370
    25
100
AcDbLine
 10
486.7857237822
 20
78.5890571429
 30
0.0
 11
508.3895204897
 21
78.5890571429
 31
0.0
  0
LINE
  5
B7
330
1F
100
AcDbEntity
  8
0
  6
Continuous
 62
     7
370
    25
100
AcDbLine
 10
508.3895204897
 20
78.5890571429
 30
0.0
 11
508.3895204897
 21
71.5890571429
 31
0.0
  0
LINE
  5
B8
330
1F
100
AcDbEntity
  8
0
  6
Continuous
 62
     7
370
    25
100
AcDbLine
 10
508.3895204897
 20
71.5890571429
 30
0.0
 11
493.3895204897
 21
71.5890571429
 31
0.0
  0
ARC
  5
B9
330
1F
100
AcDbEntity
  8
0
  6
Continuous
 62
     7
370
    25
100
AcDbCircle
 10
396.8079487486
 20
80.5890571429
 30
0.0
 40
97.00000000000004
100
AcDbArc
 50
5.3237604809
 51
354.6762395191
  0
LINE
  5
BA
330
1F
100
AcDbEntity
  8
0
  6
Continuous
 62
     7
370
    25
100
AcDbLine
 10
389.8079487486
 20
192.5890571429
 30
0.0
 11
403.8079487486
 21
192.5890571429
 31
0.0
  0
LINE
  5
BB
330
1F
100
AcDbEntity
  8
0
  6
Continuous
 62
     7
370
    25
100
AcDbLine
 10
365.3079487486
 20
245.5890571429
 30
0.0
 11
428.3079487486
 21
245.5890571429
 31
0.0
  0
LINE
  5
BC
330
1F
100
AcDbEntity
  8
0
  6
Continuous
 62
     7
370
    25
100
AcDbLine
 10
60.8834569179
 20
311.5375625169
 30
0.0
 11
220.8834569179
 21
311.5375625169
 31
0.0
  0
LINE
  5
BD
330
1F
100
AcDbEntity
  8
0
  6
Continuous
 62
     7
370
    25
100
AcDbLine
 10
220.8834569179
 20
505.1191342581
 30
0.0
 11
60.8834569179
 21
505.1191342581
 31
0.0
  0
LINE
  5
BE
330
1F
100
AcDbEntity
  8
0
  6
Continuous
 62
     7
370
    25
100
AcDbLine
 10
220.8834569179
 20
505.1191342581
 30
0.0
 11
220.8834569179
 21
311.5375625169
 31
0.0
  0
LINE
  5
BF
330
1F
100
AcDbEntity
  8
0
  6
Continuous
 62
     7
370
    25
100
AcDbLine
 10
60.8834569179
 20
505.1191342581
 30
0.0
 11
60.8834569179
 21
311.5375625169
 31
0.0
  0
LINE
  5
C0
330
1F
100
AcDbEntity
  8
0
  6
Continuous
 62
     7
370
    25
100
AcDbLine
 10
110.8834569179
 20
505.0207216691
 30
0.0
 11
170.8834569179
 21
505.0207216691
 31
0.0
  0
LINE
  5
C1
330
1F
100
AcDbEntity
  8
0
  6
Continuous
 62
     7
370
    25
100
AcDbLine
 10
110.8834569179
 20
320.1191342581
 30
0.0
 11
110.8834569179
 21
505.0207216691
 31
0.0
  0
LINE
  5
C2
330
1F
100
AcDbEntity
  8
0
  6
Continuous
 62
     7
370
    25
100
AcDbLine
 10
170.8834569179
 20
320.1191342581
 30
0.0
 11
110.8834569179
 21
320.1191342581
 31
0.0
  0
LINE
  5
C3
330
1F
100
AcDbEntity
  8
0
  6
Continuous
 62
     7
370
    25
100
AcDbLine
 10
170.8834569179
 20
505.0207216691
 30
0.0
 11
170.8834569179
 21
320.1191342581
 31
0.0
  0
SPLINE
  5
C4
330
1F
100
AcDbEntity
  8
0
  6
Continuous
 62
     7
370
    25
100
AcDbSpline
210
0.0
220
0.0
230
1.0
 70
    11
 71
     3
 72
   114
 73
   110
 74
     0
 42
0.00000001
 43
0.00000001
 40
0.0
 40
0.0
 40
0.0
 40
0.0
 40
0.03125
 40
0.03125
 40
0.046875
 40
0.046875
 40
0.0546875000000001
 40
0.0546875000000001
 40
0.0625000000000001
 40
0.0625000000000001
 40
0.0937500000000003
 40
0.0937500000000003
 40
0.1015625000000003
 40
0.1015625000000003
 40
0.1093750000000003
 40
0.1093750000000003
 40
0.1250000000000003
 40
0.1250000000000003
 40
0.1562500000000003
 40
0.1562500000000003
 40
0.1718750000000002
 40
0.1718750000000002
 40
0.1875000000000002
 40
0.1875000000000002
 40
0.2031250000000002
 40
0.2031250000000002
 40
0.2187500000000001
 40
0.2187500000000001
 40
0.25
 40
0.25
 40
0.265625
 40
0.265625
 40
0.2812499999999999
 40
0.2812499999999999
 40
0.3124999999999999
 40
0.3124999999999999
 40
0.3203124999999999
 40
0.3203124999999999
 40
0.3281249999999999
 40
0.3281249999999999
 40
0.3437499999999999
 40
0.3437499999999999
 40
0.3593749999999999
 40
0.3593749999999999
 40
0.3749999999999999
 40
0.3749999999999999
 40
0.4062499999999999
 40
0.4062499999999999
 40
0.4218749999999999
 40
0.4218749999999999
 40
0.4374999999999999
 40
0.4374999999999999
 40
0.46875
 40
0.46875
 40
0.484375
 40
0.484375
 40
0.5
 40
0.5
 40
0.515625
 40
0.515625
 40
0.53125
 40
0.53125
 40
0.5625000000000001
 40
0.5625000000000001
 40
0.5781250000000001
 40
0.5781250000000001
 40
0.5859375000000002
 40
0.5859375000000002
 40
0.5937500000000002
 40
0.5937500000000002
 40
0.6250000000000001
 40
0.6250000000000001
 40
0.6406250000000001
 40
0.6406250000000001
 40
0.6562500000000001
 40
0.6562500000000001
 40
0.6875000000000001
 40
0.6875000000000001
 40
0.7187500000000001
 40
0.7187500000000001
 40
0.7343750000000001
 40
0.7343750000000001
 40
0.7500000000000001
 40
0.7500000000000001
 40
0.7812500000000002
 40
0.7812500000000002
 40
0.7890625000000002
 40
0.7890625000000002
 40
0.7968750000000002
 40
0.7968750000000002
 40
0.8125000000000002
 40
0.8125000000000002
 40
0.8437500000000002
 40
0.8437500000000002
 40
0.8593750000000002
 40
0.8593750000000002
 40
0.8750000000000002
 40
0.8750000000000002
 40
0.8906250000000002
 40
0.8906250000000002
 40
0.9062500000000002
 40
0.9062500000000002
 40
0.9375000000000002
 40
0.9375000000000002
 40
0.9531250000000002
 40
0.9531250000000002
 40
0.9687500000000002
 40
0.9687500000000002
 40
1.0
 40
1.0
 40
1.0
 40
1.0
 10
140.8834569178853
 20
382.8375625168819
 30
0.0
 10
142.5909246847878
 20
382.8375625168819
 30
0.0
 10
144.2679775000068
 20
383.0060159263873
 30
0.0
 10
146.7402600189581
 20
383.4997097704179
 30
0.0
 10
147.5570870564102
 20
383.7047501636002
 30
0.0
 10
148.7712660993764
 20
384.0742952889304
 30
0.0
 10
149.1752786663102
 20
384.2082532362459
 30
0.0
 10
149.9729273867764
 20
384.4948687290458
 30
0.0
 10
150.3664902995705
 20
384.647416609512
 30
0.0
 10
152.3086586618177
 20
385.4553905521894
 30
0.0
 10
153.7810716551982
 20
386.2451463410313
 30
0.0
 10
155.5227100813775
 20
387.4103783784424
 30
0.0
 10
155.8660476419056
 20
387.6524121431202
 30
0.0
 10
156.5426237668458
 20
388.1547750594571
 30
0.0
 10
156.8759111303725
 20
388.4152356036961
 30
0.0
 10
157.8500112620707
 20
389.2157468091308
 30
0.0
 10
158.4688342638555
 20
389.7775258111052
 30
0.0
 10
160.2364497599447
 20
391.545518423713
 30
0.0
 10
161.297310339211
 20
392.8335225372768
 30
0.0
 10
162.7069707565946
 20
394.9383965671346
 30
0.0
 10
163.14114018431
 20
395.6617280547052
 30
0.0
 10
163.9323014402034
 20
397.1383369435429
 30
0.0
 10
164.2906256185331
 20
397.8935945881992
 30
0.0
 10
164.9331864002922
 20
399.4381058479121
 30
0.0
 10
165.2174260523544
 20
400.2273576100039
 30
0.0
 10
165.7099888535277
 20
401.8409311637222
 30
0.0
 10
165.9190249710056
 20
402.670068936867
 30
0.0
 10
166.4169579372378
 20
405.161333805665
 30
0.0
 10
166.5823657511893
 20
406.83488093372
 30
0.0
 10
166.5839945076542
 20
409.3640778197681
 30
0.0
 10
166.5431180576089
 20
410.2107810662657
 30
0.0
 10
166.3756575314765
 20
411.9088498074972
 30
0.0
 10
166.2505178425542
 20
412.7460687402386
 30
0.0
 10
165.7555790522869
 20
415.2237242620827
 30
0.0
 10
165.2674064933946
 20
416.8304632440644
 30
0.0
 10
164.4569368523373
 20
418.7825487902126
 30
0.0
 10
164.2842546411162
 20
419.1710625207643
 30
0.0
 10
163.9219233640337
 20
419.9348306205036
 30
0.0
 10
163.7320775568956
 20
420.3107005537428
 30
0.0
 10
163.1369959469619
 20
421.4206901667545
 30
0.0
 10
162.7062805561855
 20
422.1372327052929
 30
0.0
 10
161.7778676349148
 20
423.5245656052245
 30
0.0
 10
161.2801701033213
 20
424.1953550549969
 30
0.0
 10
160.2167172743386
 20
425.4909521462504
 30
0.0
 10
159.6476870814091
 20
426.1187616932881
 30
0.0
 10
157.8664529305992
 20
427.8995727139867
 30
0.0
 10
156.5787004588291
 20
428.9566966245819
 30
0.0
 10
154.4967200551528
 20
430.3519383648166
 30
0.0
 10
153.7774826957591
 20
430.785036619313
 30
0.0
 10
152.2861509227847
 20
431.5850043300082
 30
0.0
 10
151.5237056577972
 20
431.9465036999671
 30
0.0
 10
149.2003806844774
 20
432.9123950558355
 30
0.0
 10
147.5981491512091
 20
433.4024189301488
 30
0.0
 10
145.1118088242382
 20
433.901426264667
 30
0.0
 10
144.264588381023
 20
434.0282664677629
 30
0.0
 10
142.5781296752179
 20
434.1956240595635
 30
0.0
 10
141.7358759759367
 20
434.2371960477548
 30
0.0
 10
140.0532806720646
 20
434.2379241733368
 30
0.0
 10
139.2129391272167
 20
434.1970775692347
 30
0.0
 10
137.5341802885305
 20
434.0323401874347
 30
0.0
 10
136.6933018558268
 20
433.9079533294911
 30
0.0
 10
134.1896957701025
 20
433.4088326776699
 30
0.0
 10
132.5825180640055
 20
432.9178002105301
 30
0.0
 10
130.2594073461574
 20
431.9538488292143
 30
0.0
 10
129.4997547109106
 20
431.5943369878995
 30
0.0
 10
128.3826678264504
 20
430.9963837977857
 30
0.0
 10
128.0139113706091
 20
430.7871060865702
 30
0.0
 10
127.2917545690683
 20
430.3534516556275
 30
0.0
 10
126.9373326594049
 20
430.1285530839614
 30
0.0
 10
125.1977849088001
 20
428.964353298461
 30
0.0
 10
123.9093613079516
 20
427.9071517078182
 30
0.0
 10
122.1298876430669
 20
426.1300713275886
 30
0.0
 10
121.5601222412111
 20
425.5023218669261
 30
0.0
 10
120.4944937398853
 20
424.205507607347
 30
0.0
 10
119.9963717895373
 20
423.5347368038024
 30
0.0
 10
118.60378463974
 20
421.4560937872293
 30
0.0
 10
117.8100173094441
 20
419.9825855782402
 30
0.0
 10
116.5050076901523
 20
416.8480006214737
 30
0.0
 10
116.0157422370422
 20
415.2388213067916
 30
0.0
 10
115.5203036786252
 20
412.7690496628038
 30
0.0
 10
115.3950742059354
 20
411.9360922932388
 30
0.0
 10
115.2265953661875
 20
410.2501959361007
 30
0.0
 10
115.1837565507923
 20
409.3937712575951
 30
0.0
 10
115.182862423433
 20
406.8522696355477
 30
0.0
 10
115.3482032966945
 20
405.1780292604856
 30
0.0
 10
115.7595926362248
 20
403.1099206595316
 30
0.0
 10
115.8521998787165
 20
402.6975441027273
 30
0.0
 10
116.0583872496439
 20
401.8753136469007
 30
0.0
 10
116.1723367193972
 20
401.464341372981
 30
0.0
 10
116.5426521116536
 20
400.2469113576818
 30
0.0
 10
116.8275580863952
 20
399.4542223402997
 30
0.0
 10
117.7926127520858
 20
397.1307108421923
 30
0.0
 10
118.5819925540355
 20
395.6539309885204
 30
0.0
 10
119.9906072698688
 20
393.5478276253624
 30
0.0
 10
120.4932358896844
 20
392.8714308411108
 30
0.0
 10
121.5543981652764
 20
391.5794882453238
 30
0.0
 10
122.1142198523557
 20
390.9620106400156
 30
0.0
 10
123.2920983433804
 20
389.7831393772154
 30
0.0
 10
123.9101527711414
 20
389.2217446577312
 30
0.0
 10
125.2060703451787
 20
388.1558691751678
 30
0.0
 10
125.8870203336709
 20
387.6497279458783
 30
0.0
 10
127.9796929579577
 20
386.2485102977679
 30
0.0
 10
129.4508821898449
 20
385.4594436423457
 30
0.0
 10
131.7733110642309
 20
384.4918024654715
 30
0.0
 10
132.5672903715884
 20
384.2053847457826
 30
0.0
 10
134.1943633348277
 20
383.7087581125771
 30
0.0
 10
135.0146678767831
 20
383.5024168956093
 30
0.0
 10
137.495486721262
 20
383.0060826871511
 30
0.0
 10
139.1759891509828
 20
382.8375625168819
 30
0.0
 10
140.8834569178853
 20
382.8375625168819
 30
0.0
  0
LINE
  5
C5
330
1F
100
AcDbEntity
  8
0
  6
Continuous
 62
     7
370
    25
100
AcDbLine
 10
170.8834569179
 20
497.9802816169
 30
0.0
 11
110.8834569179
 21
497.9802816169
 31
0.0
  0
LINE
  5
C6
330
1F
100
AcDbEntity
  8
0
  6
Continuous
 62
     7
370
    25
100
AcDbLine
 10
220.8834569179
 20
520.1191342581
 30
0.0
 11
60.8834569179
 21
520.1191342581
 31
0.0
  0
LINE
  5
C7
330
1F
100
AcDbEntity
  8
0
  6
Continuous
 62
     7
370
    25
100
AcDbLine
 10
60.8834569179
 20
520.1191342581
 30
0.0
 11
60.8834569179
 21
505.1191342581
 31
0.0
  0
LINE
  5
C8
330
1F
100
AcDbEntity
  8
0
  6
Continuous
 62
     7
370
    25
100
AcDbLine
 10
220.8834569179
 20
520.1191342581
 30
0.0
 11
220.8834569179
 21
505.1191342581
 31
0.0
  0
INSERT
  5
D4
330
1F
100
AcDbEntity
  8
FORMAT
100
AcDbBlockReference
  2
SW_CENTERMARKSYMBOL_0
 10
140.8834569179
 20
408.5375625169
 30
0.0
  0
LINE
  5
D5
330
1F
100
AcDbEntity
  8
0
  6
Continuous
 62
     7
370
    25
100
AcDbLine
 10
-122.285871984
 20
192.5890571429
 30
0.0
 11
-122.285871984
 21
177.3361501224
 31
0.0
  0
LINE
  5
D6
330
1F
100
AcDbEntity
  8
0
  6
Continuous
 62
     7
370
    25
100
AcDbLine
 10
-108.285871984
 20
177.3423147186
 30
0.0
 11
-108.285871984
 21
192.5890571429
 31
0.0
  0
LINE
  5
D7
330
1F
100
AcDbEntity
  8
0
  6
Continuous
 62
     7
370
    25
100
AcDbLine
 10
-146.785871984
 20
245.5890571429
 30
0.0
 11
-146.785871984
 21
172.3319042755
 31
0.0
  0
LINE
  5
D8
330
1F
100
AcDbEntity
  8
0
  6
Continuous
 62
     7
370
    25
100
AcDbLine
 10
-83.785871984
 20
172.3420046574
 30
0.0
 11
-83.785871984
 21
245.5890571429
 31
0.0
  0
LINE
  5
D9
330
1F
100
AcDbEntity
  8
0
  6
Continuous
 62
     7
370
    25
100
AcDbLine
 10
-226.8674437252
 20
71.5890571429
 30
0.0
 11
-211.8674437252
 21
71.5890571429
 31
0.0
  0
LINE
  5
DA
330
1F
100
AcDbEntity
  8
0
  6
Continuous
 62
     7
370
    25
100
AcDbLine
 10
-226.8674437252
 20
78.5890571429
 30
0.0
 11
-226.8674437252
 21
71.5890571429
 31
0.0
  0
LINE
  5
DB
330
1F
100
AcDbEntity
  8
0
  6
Continuous
 62
     7
370
    25
100
AcDbLine
 10
-205.2636470176
 20
78.5890571429
 30
0.0
 11
-226.8674437252
 21
78.5890571429
 31
0.0
  0
ARC
  5
DC
330
1F
100
AcDbEntity
  8
0
  6
Continuous
 62
     7
370
    25
100
AcDbCircle
 10
-115.285871984
 20
80.5890571429
 30
0.0
 40
90.00000000000001
100
AcDbArc
 50
181.2733443614
 51
178.7266556386
  0
LINE
  5
DD
330
1F
100
AcDbEntity
  8
0
  6
Continuous
 62
     7
370
    25
100
AcDbLine
 10
-226.8674437252
 20
82.5890571429
 30
0.0
 11
-205.2636470176
 21
82.5890571429
 31
0.0
  0
LINE
  5
DE
330
1F
100
AcDbEntity
  8
0
  6
Continuous
 62
     7
370
    25
100
AcDbLine
 10
-226.8674437252
 20
89.5890571429
 30
0.0
 11
-226.8674437252
 21
82.5890571429
 31
0.0
  0
LINE
  5
DF
330
1F
100
AcDbEntity
  8
0
  6
Continuous
 62
     7
370
    25
100
AcDbLine
 10
-211.8674437252
 20
89.5890571429
 30
0.0
 11
-226.8674437252
 21
89.5890571429
 31
0.0
  0
ARC
  5
E0
330
1F
100
AcDbEntity
  8
0
  6
Continuous
 62
     7
370
    25
100
AcDbCircle
 10
-115.285871984
 20
80.5890571429
 30
0.0
 40
97.00000000000001
100
AcDbArc
 50
185.3237604809
 51
174.6762395191
  0
LINE
  5
E1
330
1F
100
AcDbEntity
  8
0
  6
Continuous
 62
     7
370
    25
100
AcDbLine
 10
-108.285871984
 20
192.5890571429
 30
0.0
 11
-122.285871984
 21
192.5890571429
 31
0.0
  0
LINE
  5
E2
330
1F
100
AcDbEntity
  8
0
  6
Continuous
 62
     7
370
    25
100
AcDbLine
 10
-146.785871984
 20
245.5890571429
 30
0.0
 11
-83.785871984
 21
245.5890571429
 31
0.0
  0
LINE
  5
E3
330
1F
100
AcDbEntity
  8
0
  6
Continuous
 62
     7
370
    25
100
AcDbLine
 10
220.8834569179
 20
-78.4731443653
 30
0.0
 11
60.8834569179
 21
-78.4731443653
 31
0.0
  0
CIRCLE
  5
E4
330
1F
100
AcDbEntity
  8
0
  6
Continuous
 62
     7
370
    25
100
AcDbCircle
 10
140.8834569179
 20
-175.4731443653
 30
0.0
 40
25.70000000000002
  0
CIRCLE
  5
E5
330
1F
100
AcDbEntity
  8
0
  6
Continuous
 62
     7
370
    25
100
AcDbCircle
 10
140.8834569179
 20
-175.4731443653
 30
0.0
 40
31.50000000000003
  0
CIRCLE
  5
E6
330
1F
100
AcDbEntity
  8
0
  6
Continuous
 62
     7
370
    25
100
AcDbCircle
 10
70.8834569179
 20
-175.4731443653
 30
0.0
 40
4.599999999999994
  0
CIRCLE
  5
E7
330
1F
100
AcDbEntity
  8
0
  6
Continuous
 62
     7
370
    25
100
AcDbCircle
 10
70.8834569179
 20
-175.4731443653
 30
0.0
 40
7.000000000000028
  0
CIRCLE
  5
E8
330
1F
100
AcDbEntity
  8
0
  6
Continuous
 62
     7
370
    25
100
AcDbCircle
 10
210.8834569179
 20
-175.4731443653
 30
0.0
 40
4.599999999999994
  0
CIRCLE
  5
E9
330
1F
100
AcDbEntity
  8
0
  6
Continuous
 62
     7
370
    25
100
AcDbCircle
 10
210.8834569179
 20
-175.4731443653
 30
0.0
 40
7.000000000000028
  0
CIRCLE
  5
EA
330
1F
100
AcDbEntity
  8
0
  6
Continuous
 62
     7
370
    25
100
AcDbCircle
 10
70.8834569179
 20
-175.4731443653
 30
0.0
 40
1.500000000000028
  0
CIRCLE
  5
EB
330
1F
100
AcDbEntity
  8
0
  6
Continuous
 62
     7
370
    25
100
AcDbCircle
 10
70.8834569179
 20
-175.4731443653
 30
0.0
 40
2.0
  0
CIRCLE
  5
EC
330
1F
100
AcDbEntity
  8
0
  6
Continuous
 62
     7
370
    25
100
AcDbCircle
 10
210.8834569179
 20
-175.4731443653
 30
0.0
 40
1.500000000000028
  0
CIRCLE
  5
ED
330
1F
100
AcDbEntity
  8
0
  6
Continuous
 62
     7
370
    25
100
AcDbCircle
 10
210.8834569179
 20
-175.4731443653
 30
0.0
 40
2.0
  0
LINE
  5
EE
330
1F
100
AcDbEntity
  8
0
  6
Continuous
 62
     7
370
    25
100
AcDbLine
 10
220.8834569179
 20
-78.4731443653
 30
0.0
 11
220.8834569179
 21
-272.0547161065
 31
0.0
  0
LINE
  5
EF
330
1F
100
AcDbEntity
  8
0
  6
Continuous
 62
     7
370
    25
100
AcDbLine
 10
220.8834569179
 20
-272.0547161065
 30
0.0
 11
60.8834569179
 21
-272.0547161065
 31
0.0
  0
LINE
  5
F0
330
1F
100
AcDbEntity
  8
0
  6
Continuous
 62
     7
370
    25
100
AcDbLine
 10
60.8834569179
 20
-78.4731443653
 30
0.0
 11
60.8834569179
 21
-272.0547161065
 31
0.0
  0
LINE
  5
F1
330
1F
100
AcDbEntity
  8
0
  6
Continuous
 62
     7
370
    25
100
AcDbLine
 10
220.8834569179
 20
-287.0547161065
 30
0.0
 11
60.8834569179
 21
-287.0547161065
 31
0.0
  0
LINE
  5
F2
330
1F
100
AcDbEntity
  8
0
  6
Continuous
 62
     7
370
    25
100
AcDbLine
 10
60.8834569179
 20
-272.0547161065
 30
0.0
 11
60.8834569179
 21
-287.0547161065
 31
0.0
  0
LINE
  5
F3
330
1F
100
AcDbEntity
  8
0
  6
Continuous
 62
     7
370
    25
100
AcDbLine
 10
220.8834569179
 20
-272.0547161065
 30
0.0
 11
220.8834569179
 21
-287.0547161065
 31
0.0
  0
INSERT
  5
FF
330
1F
100
AcDbEntity
  8
FORMAT
100
AcDbBlockReference
  2
SW_CENTERMARKSYMBOL_1
 10
140.8834569179
 20
-175.4731443653
 30
0.0
  0
INSERT
  5
10B
330
1F
100
AcDbEntity
  8
FORMAT
100
AcDbBlockReference
  2
SW_CENTERMARKSYMBOL_2
 10
70.8834569179
 20
-175.4731443653
 30
0.0
  0
INSERT
  5
117
330
1F
100
AcDbEntity
  8
FORMAT
100
AcDbBlockReference
  2
SW_CENTERMARKSYMBOL_3
 10
210.8834569179
 20
-175.4731443653
 30
0.0
  0
LINE
  5
118
330
1F
100
AcDbEntity
  8
0
  6
Continuous
 62
     7
370
    25
100
AcDbLine
 10
510.9229769484
 20
-282.9649574976
 30
0.0
 11
546.2783160077
 21
-262.554754702
 31
0.0
  0
LINE
  5
119
330
1F
100
AcDbEntity
  8
0
  6
Continuous
 62
     7
370
    25
100
AcDbLine
 10
433.1412310178
 20
-327.8674036479
 30
0.0
 11
468.4965700772
 21
-307.4572008523
 31
0.0
  0
LINE
  5
11A
330
1F
100
AcDbEntity
  8
0
  6
Continuous
 62
     7
370
    25
100
AcDbLine
 10
449.286198942
 20
-94.5412754002
 30
0.0
 11
336.1491139521
 21
-159.853924346
 31
0.0
  0
LINE
  5
11B
330
1F
100
AcDbEntity
  8
0
  6
Continuous
 62
     7
370
    25
100
AcDbLine
 10
483.711189663
 20
-91.177484679
 30
0.0
 11
483.711189663
 21
-92.9051280911
 31
0.0
  0
LINE
  5
11C
330
1F
100
AcDbEntity
  8
0
  6
Continuous
 62
     7
370
    25
100
AcDbLine
 10
497.711189663
 20
-99.3025722397
 30
0.0
 11
497.711189663
 21
-91.177484679
 31
0.0
  0
LINE
  5
11D
330
1F
100
AcDbEntity
  8
0
  6
Continuous
 62
     7
370
    25
100
AcDbLine
 10
409.7137149799
 20
-76.4751055629
 30
0.0
 11
409.7137149799
 21
-117.3859841282
 31
0.0
  0
LINE
  5
11E
330
1F
100
AcDbEntity
  8
0
  6
Continuous
 62
     7
370
    25
100
AcDbLine
 10
472.7137149799
 20
-90.3514516782
 30
0.0
 11
472.7137149799
 21
-76.4751055629
 31
0.0
  0
LINE
  5
11F
330
1F
100
AcDbEntity
  8
0
  6
Continuous
 62
     7
370
    25
100
AcDbLine
 10
418.8821714412
 20
-140.3488322084
 30
0.0
 11
429.488773159
 21
-146.471893047
 31
0.0
  0
LINE
  5
120
330
1F
100
AcDbEntity
  8
0
  6
Continuous
 62
     7
370
    25
100
AcDbLine
 10
418.8821714412
 20
-134.6330465252
 30
0.0
 11
418.8821714412
 21
-140.3488322084
 31
0.0
  0
LINE
  5
121
330
1F
100
AcDbEntity
  8
0
  6
Continuous
 62
     7
370
    25
100
AcDbLine
 10
434.1583625925
 20
-143.4518039643
 30
0.0
 11
418.8821714412
 21
-134.6330465252
 31
0.0
  0
LWPOLYLINE
  5
122
330
1F
100
AcDbEntity
  8
0
  6
Continuous
 62
     7
370
    25
100
AcDbPolyline
 90
      118
 70
   128
 43
0.0
 10
434.1583625925
 20
-140.1856407167
 10
434.3241655893
 20
-136.3678990494
 10
434.6703558059
 20
-132.6700594093
 10
435.1959491553
 20
-129.102633348
 10
435.8994515755
 20
-125.6757617011
 10
436.7788632767
 20
-122.3991857613
 10
437.8316844258
 20
-119.2822195878
 10
439.0549222527
 20
-116.3337235299
 10
440.4450995576
 20
-113.5620790406
 10
441.9982645952
 20
-110.9751648508
 10
443.7100023078
 20
-108.5803345738
 10
445.5754468763
 20
-106.3843958012
 10
447.5892955512
 20
-104.3935907518
 10
449.7458237268
 20
-102.6135785271
 10
452.0389012135
 20
-101.049419025
 10
454.4620096643
 20
-99.7055585558
 10
457.0082611033
 20
-98.5858172039
 10
459.6704175063
 20
-97.693377968
 10
462.440911375
 20
-97.0307777135
 10
465.3118672491
 20
-96.5998999609
 10
468.275124093
 20
-96.4019695316
 10
471.3222584945
 20
-96.4375490668
 10
474.4446086094
 20
-96.7065374272
 10
477.6332987839
 20
-97.2081699813
 10
480.8792647846
 20
-97.9410207786
 10
484.1732795647
 20
-98.9030066028
 10
487.505979493
 20
-100.0913928943
 10
490.8678909712
 20
-101.5028015227
 10
494.2494573636
 20
-103.1332203902
 10
497.6410661631
 20
-104.978014836
 10
501.0330763157
 20
-107.0319408111
 10
504.4158456268
 20
-109.2891597852
 10
507.7797581698
 20
-111.7432553432
 10
511.1152516207
 20
-114.3872514249
 10
514.4128444403
 20
-117.2136321549
 10
517.6631628263
 20
-120.2143632079
 10
520.8569673598
 20
-123.3809146467
 10
523.9851792692
 20
-126.70428517
 10
527.0389062379
 20
-130.1750276993
 10
530.0094676814
 20
-133.7832762338
 10
532.8884194235
 20
-137.518773895
 10
535.6675776993
 20
-141.370902084
 10
538.3390424189
 20
-145.3287106654
 10
540.895219624
 20
-149.3809490947
 10
543.3288430751
 20
-153.5160983992
 10
545.6329949063
 20
-157.7224039223
 10
547.8011252903
 20
-161.987908737
 10
549.8270710571
 20
-166.3004876357
 10
551.7050732133
 20
-170.6478815966
 10
553.4297933131
 20
-175.0177326322
 10
554.9963286333
 20
-179.3976189181
 10
556.4002261097
 20
-183.7750901032
 10
557.6374949958
 20
-188.1377027021
 10
558.7046182066
 20
-192.4730554662
 10
559.5985623169
 20
-196.7688246367
 10
560.3167861833
 20
-201.0127989755
 10
560.8572481688
 20
-205.1929144778
 10
561.2184119453
 20
-209.297288665
 10
561.3992508617
 20
-213.3142543623
 10
561.3992508617
 20
-217.2323928641
 10
561.2184119453
 20
-221.0405663928
 10
560.8572481688
 20
-224.7279497595
 10
560.3167861833
 20
-228.2840611357
 10
559.5985623169
 20
-231.6987918492
 10
558.7046182066
 20
-234.9624351194
 10
557.6374949958
 20
-238.0657136497
 10
556.4002261097
 20
-240.9998059997
 10
554.9963286333
 20
-243.7563716605
 10
553.4297933131
 20
-246.3275747646
 10
551.7050732133
 20
-248.7061063594
 10
549.8270710571
 20
-250.8852051842
 10
547.8011252903
 20
-252.8586768898
 10
545.6329949063
 20
-254.6209116468
 10
543.3288430751
 20
-256.1669000919
 10
540.895219624
 20
-257.4922475681
 10
538.3390424189
 20
-258.5931866166
 10
535.6675776993
 20
-259.4665876863
 10
532.8884194235
 20
-260.1099680302
 10
530.0094676814
 20
-260.5214987626
 10
527.0389062379
 20
-260.7000100583
 10
523.9851792692
 20
-260.6449944775
 10
520.8569673598
 20
-260.3566084085
 10
517.6631628263
 20
-259.8356716234
 10
514.4128444403
 20
-259.0836649471
 10
511.1152516207
 20
-258.1027260488
 10
507.7797581698
 20
-256.8956433646
 10
504.4158456268
 20
-255.4658481714
 10
501.0330763157
 20
-253.8174048333
 10
497.6410661631
 20
-251.9549992476
 10
494.2494573636
 20
-249.8839255251
 10
490.8678909712
 20
-247.6100709407
 10
487.505979493
 20
-245.1398991982
 10
484.1732795647
 20
-242.4804320563
 10
480.8792647846
 20
-239.6392293685
 10
477.6332987839
 20
-236.6243675937
 10
474.4446086094
 20
-233.444416837
 10
471.3222584945
 20
-230.1084164891
 10
468.275124093
 20
-226.6258495301
 10
465.3118672491
 20
-223.0066155735
 10
462.440911375
 20
-219.2610027247
 10
459.6704175063
 20
-215.3996583366
 10
457.0082611033
 20
-211.4335587425
 10
454.4620096643
 20
-207.3739780553
 10
452.0389012135
 20
-203.2324561188
 10
449.7458237268
 20
-199.0207657048
 10
447.5892955512
 20
-194.7508790471
 10
445.5754468763
 20
-190.4349338096
 10
443.7100023078
 20
-186.0851985831
 10
441.9982645952
 20
-181.7140380104
 10
440.4450995576
 20
-177.3338776387
 10
439.0549222527
 20
-172.9571685978
 10
437.8316844258
 20
-168.596352207
 10
436.7788632767
 20
-164.2638246087
 10
435.8994515755
 20
-159.971901531
 10
435.1959491553
 20
-155.7327832789
 10
434.6703558059
 20
-151.5585200533
 10
434.3241655893
 20
-147.460977697
 10
434.1583625925
 20
-143.4518039643
  0
LINE
  5
123
330
1F
100
AcDbEntity
  8
0
  6
Continuous
 62
     7
370
    25
100
AcDbLine
 10
418.8821714412
 20
-131.3668832776
 30
0.0
 11
434.1583625925
 21
-140.1856407167
 31
0.0
  0
LINE
  5
124
330
1F
100
AcDbEntity
  8
0
  6
Continuous
 62
     7
370
    25
100
AcDbLine
 10
418.8821714412
 20
-125.6510975944
 30
0.0
 11
418.8821714412
 21
-131.3668832776
 31
0.0
  0
LINE
  5
125
330
1F
100
AcDbEntity
  8
0
  6
Continuous
 62
     7
370
    25
100
AcDbLine
 10
429.488773159
 20
-131.7741584331
 30
0.0
 11
418.8821714412
 21
-125.6510975944
 31
0.0
  0
LWPOLYLINE
  5
126
330
1F
100
AcDbEntity
  8
0
  6
Continuous
 62
     7
370
    25
100
AcDbPolyline
 90
      120
 70
   128
 43
0.0
 10
429.488773159
 20
-146.471893047
 10
429.9043364843
 20
-150.7411713165
 10
430.4980646431
 20
-155.083436525
 10
431.2683992276
 20
-159.4872911674
 10
432.2133182765
 20
-163.9411760795
 10
433.3303415819
 20
-168.4334007786
 10
434.6165371999
 20
-172.9521741484
 10
436.0685291456
 20
-177.4856353879
 10
437.6825062548
 20
-182.0218851438
 10
439.4542321874
 20
-186.5490167435
 10
441.3790565466
 20
-191.0551474475
 10
443.4519270858
 20
-195.5284496394
 10
445.6674029688
 20
-199.95718187
 10
448.0196690516
 20
-204.3297196772
 10
450.5025511455
 20
-208.6345860966
 10
453.1095322231
 20
-212.8604817867
 10
455.8337695238
 20
-216.9963146872
 10
458.6681125151
 20
-221.0312291329
 10
461.605121661
 20
-224.9546343477
 10
464.6370879488
 20
-228.7562322432
 10
467.756053124
 20
-232.4260444486
 10
470.953830579
 20
-235.9544385023
 10
474.2220268409
 20
-239.3321531343
 10
477.5520636027
 20
-242.5503225758
 10
480.9352002395
 20
-245.6004998293
 10
484.3625567509
 20
-248.4746788405
 10
487.8251370685
 20
-251.1653155124
 10
491.3138526696
 20
-253.6653475068
 10
494.8195464315
 20
-255.9682127813
 10
498.3330166679
 20
-258.0678668138
 10
501.8450412808
 20
-259.9587984673
 10
505.3464019666
 20
-261.636044456
 10
508.8279084123
 20
-263.0952023727
 10
512.2804224178
 20
-264.3324422441
 10
515.6948818821
 20
-265.3445165835
 10
519.062324589
 20
-266.1287689152
 10
522.3739117311
 20
-266.6831407468
 10
525.6209511098
 20
-267.0061769723
 10
528.7949199504
 20
-267.0970296915
 10
531.8874872724
 20
-266.955460436
 10
534.8905357567
 20
-266.5818407941
 10
537.7961830519
 20
-265.9771514366
 10
540.5968024636
 20
-265.142979542
 10
543.2850429725
 20
-264.0815146306
 10
545.8538485299
 20
-262.795542818
 10
548.2964765779
 20
-261.2884395014
 10
550.6065157472
 20
-259.5641605005
 10
552.7779026855
 20
-257.627231674
 10
554.8049379727
 20
-255.4827370402
 10
556.6823010804
 20
-253.136305433
 10
558.4050643373
 20
-250.5940957268
 10
559.9687058631
 20
-247.8627806712
 10
561.3691214376
 20
-244.9495293764
 10
562.6026352736
 20
-241.8619884956
 10
563.6660096643
 20
-238.6082621547
 10
564.5564534826
 20
-235.1968906801
 10
565.2716295063
 20
-231.6368281829
 10
565.8096605534
 20
-227.9374190555
 10
566.1691344089
 20
-224.1083734453
 10
566.3491075319
 20
-220.1597417672
 10
566.3491075319
 20
-216.1018883237
 10
566.1691344089
 20
-211.9454641008
 10
565.8096605534
 20
-207.7013788114
 10
565.2716295063
 20
-203.3807722596
 10
564.5564534826
 20
-198.9949851014
 10
563.6660096643
 20
-194.5555290777
 10
562.6026352736
 20
-190.0740567985
 10
561.3691214376
 20
-185.5623311574
 10
559.9687058631
 20
-181.0321944565
 10
558.4050643373
 20
-176.495537323
 10
556.6823010804
 20
-171.9642674988
 10
554.8049379727
 20
-167.4502785852
 10
552.7779026855
 20
-162.9654188249
 10
550.6065157472
 20
-158.521460003
 10
548.2964765779
 20
-154.1300665484
 10
545.8538485299
 20
-149.8027649172
 10
543.2850429725
 20
-145.5509133385
 10
540.5968024636
 20
-141.3856720013
 10
537.7961830519
 20
-137.3179737616
 10
534.8905357567
 20
-133.3584954457
 10
531.8874872724
 20
-129.5176298262
 10
528.7949199504
 20
-125.805458343
 10
525.6209511098
 20
-122.231724642
 10
522.3739117311
 20
-118.8058089995
 10
519.062324589
 20
-115.5367037017
 10
515.6948818821
 20
-112.4329894417
 10
512.2804224178
 20
-109.5028127969
 10
508.8279084123
 20
-106.7538648458
 10
505.3464019666
 20
-104.1933609813
 10
501.8450412808
 20
-101.8280219711
 10
498.3330166679
 20
-99.6640563175
 10
494.8195464315
 20
-97.7071439614
 10
491.3138526696
 20
-95.9624213737
 10
487.8251370685
 20
-94.4344680732
 10
484.3625567509
 20
-93.1272946061
 10
480.9352002395
 20
-92.0443320194
 10
477.5520636027
 20
-91.1884228555
 10
474.2220268409
 20
-90.5618136902
 10
470.953830579
 20
-90.1661492369
 10
467.756053124
 20
-90.002468029
 10
464.6370879488
 20
-90.0711996943
 10
461.605121661
 20
-90.372163827
 10
458.6681125151
 20
-90.9045704614
 10
455.8337695238
 20
-91.6670221456
 10
453.109532223
 20
-92.657517609
 10
450.5025511455
 20
-93.8734570158
 10
448.0196690516
 20
-95.3116487885
 10
445.6674029688
 20
-96.9683179853
 10
443.4519270858
 20
-98.8391162085
 10
441.3790565466
 20
-100.9191330184
 10
439.4542321874
 20
-103.2029088214
 10
437.6825062548
 20
-105.684449201
 10
436.0685291456
 20
-108.3572406514
 10
434.6165371999
 20
-111.2142676743
 10
433.3303415819
 20
-114.2480311929
 10
432.2133182765
 20
-117.4505682353
 10
431.2683992276
 20
-120.8134728358
 10
430.4980646431
 20
-124.3279180985
 10
429.9043364843
 20
-127.9846793662
 10
429.488773159
 20
-131.7741584331
  0
LINE
  5
127
330
1F
100
AcDbEntity
  8
0
  6
Continuous
 62
     7
370
    25
100
AcDbLine
 10
429.488773159
 20
-146.471893047
 30
0.0
 11
316.3516881691
 21
-211.7845419929
 31
0.0
  0
LWPOLYLINE
  5
128
330
1F
100
AcDbEntity
  8
0
  6
Continuous
 62
     7
370
    25
100
AcDbPolyline
 90
       46
 70
   128
 43
0.0
 10
316.3516881691
 20
-211.7845419929
 10
316.7672514945
 20
-216.0538202623
 10
317.3609796532
 20
-220.3960854708
 10
318.1313142377
 20
-224.7999401132
 10
319.0762332866
 20
-229.2538250253
 10
320.1932565921
 20
-233.7460497244
 10
321.4794522101
 20
-238.2648230942
 10
322.9314441558
 20
-242.7982843337
 10
324.545421265
 20
-247.3345340896
 10
326.3171471975
 20
-251.8616656893
 10
328.2419715568
 20
-256.3677963934
 10
330.3148420959
 20
-260.8410985852
 10
332.530317979
 20
-265.2698308159
 10
334.8825840618
 20
-269.642368623
 10
337.3654661557
 20
-273.9472350424
 10
339.9724472332
 20
-278.1731307326
 10
342.6966845339
 20
-282.308963633
 10
345.5310275253
 20
-286.3438780787
 10
348.4680366712
 20
-290.2672832935
 10
351.5000029589
 20
-294.068881189
 10
354.6189681342
 20
-297.7386933944
 10
357.8167455892
 20
-301.2670874481
 10
361.0849418511
 20
-304.6448020801
 10
364.4149786129
 20
-307.8629715216
 10
367.7981152497
 20
-310.9131487751
 10
371.225471761
 20
-313.7873277864
 10
374.6880520787
 20
-316.4779644582
 10
378.1767676797
 20
-318.9779964526
 10
381.6824614417
 20
-321.2808617271
 10
385.1959316781
 20
-323.3805157596
 10
388.707956291
 20
-325.2714474131
 10
392.2093169768
 20
-326.9486934018
 10
395.6908234224
 20
-328.4078513185
 10
399.1433374279
 20
-329.6450911899
 10
402.5577968923
 20
-330.6571655293
 10
405.9252395992
 20
-331.4414178611
 10
409.2368267413
 20
-331.9957896926
 10
412.48386612
 20
-332.3188259181
 10
415.6578349605
 20
-332.4096786374
 10
418.7504022825
 20
-332.2681093818
 10
421.7534507669
 20
-331.8944897399
 10
424.6590980621
 20
-331.2898003824
 10
427.4597174737
 20
-330.4556284878
 10
430.1479579826
 20
-329.3941635765
 10
432.71676354
 20
-328.1081917638
 10
433.1412310178
 20
-327.8674036479
  0
LWPOLYLINE
  5
129
330
1F
100
AcDbEntity
  8
0
  6
Continuous
 62
     7
370
    25
100
AcDbPolyline
 90
       12
 70
   128
 43
0.0
 10
336.1491139521
 20
-159.853924346
 10
334.8825840618
 20
-160.6242977343
 10
332.530317979
 20
-162.2809669311
 10
330.3148420959
 20
-164.1517651544
 10
328.2419715568
 20
-166.2317819642
 10
326.3171471975
 20
-168.5155577672
 10
324.545421265
 20
-170.9970981468
 10
322.9314441558
 20
-173.6698895973
 10
321.4794522101
 20
-176.5269166202
 10
320.1932565921
 20
-179.5606801387
 10
319.0762332866
 20
-182.7632171811
 10
318.887357529
 20
-183.3768749382
  0
LINE
  5
12A
330
1F
100
AcDbEntity
  8
0
  6
Continuous
 62
     7
370
    25
100
AcDbLine
 10
351.7766154375
 20
-192.2310524271
 30
0.0
 11
394.2030223086
 21
-167.7388090724
 31
0.0
  0
LWPOLYLINE
  5
12B
330
1F
100
AcDbEntity
  8
0
  6
Continuous
 62
     7
370
    25
100
AcDbPolyline
 90
       52
 70
   128
 43
0.0
 10
482.521781748
 20
-292.1147224832
 10
480.994288294
 20
-294.8896923113
 10
479.3065328132
 20
-297.4769545307
 10
477.4629499073
 20
-299.8697110727
 10
475.4683836171
 20
-302.061674935
 10
473.328074694
 20
-304.047086701
 10
471.0476468308
 20
-305.8207296727
 10
468.6330918843
 20
-307.3779435777
 10
466.0907541326
 20
-308.7146368139
 10
463.4273136047
 20
-309.8272972007
 10
460.6497685288
 20
-310.7130012069
 10
457.7654169448
 20
-311.3694216324
 10
454.781837528
 20
-311.7948337231
 10
451.7068696762
 20
-311.9881197026
 10
448.5485929117
 20
-311.9487717092
 10
445.3153056523
 20
-311.6768931303
 10
442.0155034067
 20
-311.1731983309
 10
438.657856453
 20
-310.4390107762
 10
435.2511870568
 20
-309.4762595546
 10
431.8044462911
 20
-308.2874743089
 10
428.3266905167
 20
-306.8757785893
 10
424.8270575873
 20
-305.2448816468
 10
421.3147428385
 20
-303.3990686865
 10
417.7989749282
 20
-301.3431896086
 10
414.288991587
 20
-299.0826462649
 10
410.7940153467
 20
-296.6233782657
 10
407.3232293078
 20
-293.9718473729
 10
403.8857530106
 20
-291.1350205224
 10
400.4906184735
 20
-288.1203515173
 10
397.1467464614
 20
-284.9357614441
 10
393.8629230462
 20
-281.5896178589
 10
390.6477765213
 20
-278.0907128023
 10
387.5097547304
 20
-274.4482396976
 10
384.457102871
 20
-270.6717691954
 10
381.4978418298
 20
-266.7712240263
 10
378.6397471078
 20
-262.756852929
 10
375.8903283901
 20
-258.6392037213
 10
373.2568098139
 20
-254.4290955858
 10
370.7461109872
 20
-250.1375906423
 10
368.3648288074
 20
-245.7759648818
 10
366.1192201277
 20
-241.3556785389
 10
364.0151853172
 20
-236.8883459795
 10
362.0582527577
 20
-232.3857051844
 10
360.2535643177
 20
-227.8595869069
 10
358.605861842
 20
-223.3218835882
 10
357.1194746927
 20
-218.784518109
 10
355.7983083733
 20
-214.2594124625
 10
354.6458342675
 20
-209.7584564289
 10
353.6650805175
 20
-205.2934763351
 10
352.8586240679
 20
-200.8762039805
 10
352.2285838947
 20
-196.5182458119
 10
351.7766154375
 20
-192.2310524271
  0
LINE
  5
12C
330
1F
100
AcDbEntity
  8
0
  6
Continuous
 62
     7
370
    25
100
AcDbLine
 10
490.6229752564
 20
-287.4380030176
 30
0.0
 11
482.521781748
 21
-292.1147224832
 31
0.0
  0
LWPOLYLINE
  5
12D
330
1F
100
AcDbEntity
  8
0
  6
Continuous
 62
     7
370
    25
100
AcDbPolyline
 90
       45
 70
   128
 43
0.0
 10
394.2030223086
 20
-167.7388090724
 10
394.6549907659
 20
-172.0260024572
 10
395.2850309391
 20
-176.3839606258
 10
396.0914873887
 20
-180.8012329804
 10
397.0722411387
 20
-185.2662130743
 10
398.2247152445
 20
-189.7671691078
 10
399.5458815639
 20
-194.2922747544
 10
401.0322687132
 20
-198.8296402335
 10
402.6799711889
 20
-203.3673435523
 10
404.4846596289
 20
-207.8934618297
 10
406.4415921884
 20
-212.3961026249
 10
408.5456269989
 20
-216.8634351842
 10
410.7912356786
 20
-221.2837215272
 10
413.1725178584
 20
-225.6453472876
 10
415.6832166851
 20
-229.9368522311
 10
418.3167352613
 20
-234.1469603666
 10
421.066153979
 20
-238.2646095743
 10
423.924248701
 20
-242.2789806716
 10
426.8835097422
 20
-246.1795258407
 10
429.9361616016
 20
-249.9559963429
 10
433.0741833925
 20
-253.5984694476
 10
436.2893299174
 20
-257.0973745042
 10
439.5731533326
 20
-260.4435180894
 10
442.9170253447
 20
-263.6281081627
 10
446.3121598817
 20
-266.6427771677
 10
449.749636179
 20
-269.4796040183
 10
453.2204222179
 20
-272.131134911
 10
456.7153984582
 20
-274.5904029102
 10
460.2253817994
 20
-276.8509462539
 10
463.7411497097
 20
-278.9068253318
 10
467.2534644585
 20
-280.7526382921
 10
470.7530973879
 20
-282.3835352347
 10
474.2308531622
 20
-283.7952309542
 10
477.677593928
 20
-284.9840161999
 10
481.0842633242
 20
-285.9467674215
 10
484.4419102779
 20
-286.6809549762
 10
487.7417125235
 20
-287.1846497756
 10
490.9749997829
 20
-287.4565283545
 10
494.1332765474
 20
-287.4958763479
 10
497.2082443992
 20
-287.3025903684
 10
500.191823816
 20
-286.8771782777
 10
503.0761754
 20
-286.2207578522
 10
505.8537204758
 20
-285.3350538461
 10
508.5171610038
 20
-284.2223934593
 10
510.9229769484
 20
-282.9649574976
  0
SPLINE
  5
12E
330
1F
100
AcDbEntity
  8
0
  6
Continuous
 62
     7
370
    25
100
AcDbSpline
210
0.0
220
0.0
230
1.0
 70
     8
 71
     3
 72
    23
 73
    19
 74
     0
 42
0.00000001
 43
0.00000001
 40
0.0
 40
0.0
 40
0.0
 40
0.0
 40
0.0639882297990163
 40
0.1279843162611687
 40
0.1918902835112755
 40
0.2558066934426028
 40
0.3213851121642978
 40
0.3869612722003626
 40
0.4537593358605226
 40
0.5205444773898785
 40
0.5855832223743993
 40
0.6506186655543342
 40
0.7137694123323163
 40
0.7769291561897083
 40
0.8407800728451919
 40
0.9046389515919431
 40
0.9707450281824083
 40
1.0
 40
1.0
 40
1.0
 40
1.0
 10
459.3863592564092
 20
-151.2664204951133
 30
0.0
 10
460.3358536456844
 20
-150.6448966956656
 30
0.0
 10
462.23495900595
 20
-149.4017727842492
 30
0.0
 10
464.3853594189859
 20
-147.0326591458258
 30
0.0
 10
465.9293683962609
 20
-144.3903910045568
 30
0.0
 10
466.8213277429866
 20
-141.52605036927
 30
0.0
 10
467.0108556128777
 20
-138.5496020388623
 30
0.0
 10
466.4928563449793
 20
-135.5579090322339
 30
0.0
 10
465.2327291065878
 20
-132.7039036318888
 30
0.0
 10
463.28936732278
 20
-130.1203061133478
 30
0.0
 10
460.7136374052786
 20
-127.9393413264184
 30
0.0
 10
457.6539119887199
 20
-126.2215254279344
 30
0.0
 10
454.1748420675776
 20
-125.0074814981196
 30
0.0
 10
450.3938196458282
 20
-124.2726534159811
 30
0.0
 10
446.3627755575342
 20
-124.0201908963248
 30
0.0
 10
442.1528994294645
 20
-124.2322773256531
 30
0.0
 10
438.649387981568
 20
-124.699026116593
 30
0.0
 10
436.6210266307812
 20
-125.2045620976639
 30
0.0
 10
435.9987636088896
 20
-125.3596510058282
 30
0.0
  0
SPLINE
  5
12F
330
1F
100
AcDbEntity
  8
0
  6
Continuous
 62
     7
370
    25
100
AcDbSpline
210
0.0
220
0.0
230
1.0
 70
     8
 71
     3
 72
    14
 73
    10
 74
     0
 42
0.00000001
 43
0.00000001
 40
0.0
 40
0.0
 40
0.0
 40
0.0
 40
0.0612171196476299
 40
0.2222133934357637
 40
0.3832131099188307
 40
0.5484244866486526
 40
0.713603719983007
 40
0.8568079065746035
 40
1.0
 40
1.0
 40
1.0
 40
1.0
 10
434.8922600091651
 20
-152.8437445295811
 30
0.0
 10
435.4122053870555
 20
-152.9859199245792
 30
0.0
 10
437.2995667573277
 20
-153.5020055745972
 30
0.0
 10
440.7019380924631
 20
-154.0533046998162
 30
0.0
 10
444.9995828726234
 20
-154.4321515149947
 30
0.0
 10
449.247776579209
 20
-154.3225188094499
 30
0.0
 10
453.1254929247011
 20
-153.7287056387317
 30
0.0
 10
456.5581122000418
 20
-152.7196322056307
 30
0.0
 10
458.4436367765612
 20
-151.7508107623634
 30
0.0
 10
459.3863592564092
 20
-151.2664204951133
 30
0.0
  0
LINE
  5
130
330
1F
100
AcDbEntity
  8
0
  6
Continuous
 62
     7
370
    25
100
AcDbLine
 10
434.1583625925
 20
-140.1856407167
 30
0.0
 11
431.3294757314
 21
-141.8187223405
 31
0.0
  0
LWPOLYLINE
  5
131
330
1F
100
AcDbEntity
  8
0
  6
Continuous
 62
     7
370
    25
100
AcDbPolyline
 90
        3
 70
   128
 43
0.0
 10
391.7265193845
 20
-174.9163361489
 10
394.64267318
 20
-177.055904289
 10
395.5122703246
 20
-177.7247862802
  0
LWPOLYLINE
  5
132
330
1F
100
AcDbEntity
  8
0
  6
Continuous
 62
     7
370
    25
100
AcDbPolyline
 90
       12
 70
   128
 43
0.0
 10
447.3518514256
 20
-267.5233044467
 10
447.7201631789
 20
-270.5055634236
 10
448.0813269555
 20
-274.6099376108
 10
448.2621658719
 20
-278.6269033081
 10
448.2621658719
 20
-282.5450418099
 10
448.0813269555
 20
-286.3532153386
 10
447.7201631789
 20
-290.0405987053
 10
447.1797011935
 20
-293.5967100815
 10
446.461477327
 20
-297.011440795
 10
445.5675332168
 20
-300.2750840652
 10
444.5004100059
 20
-303.3783625956
 10
443.7024558857
 20
-305.3349228294
  0
ARC
  5
133
330
1F
100
AcDbEntity
  8
0
  6
Continuous
 62
     7
370
    25
100
AcDbCircle
 10
473.0418194281
 20
-239.7004414842
 30
0.0
 40
52.69233051183027
100
AcDbArc
 50
336.8303792536
 51
350.0915476408
  0
LINE
  5
134
330
1F
100
AcDbEntity
  8
0
  6
Continuous
 62
     7
370
    25
100
AcDbLine
 10
509.6502595211
 20
-257.5987503533
 30
0.0
 11
524.9481886192
 21
-248.7674438647
 31
0.0
  0
LWPOLYLINE
  5
135
330
1F
100
AcDbEntity
  8
0
  6
Continuous
 62
     7
370
    25
100
AcDbPolyline
 90
       51
 70
   128
 43
0.0
 10
356.754958341
 20
-195.1049886119
 10
357.2249511816
 20
-199.2796411322
 10
357.8754687477
 20
-203.5238020827
 10
358.7046403349
 20
-207.825266459
 10
359.7100814808
 20
-212.1716644683
 10
360.8889008215
 20
-216.5504971013
 10
362.2377084066
 20
-220.9491720762
 10
363.7526254475
 20
-225.3550400499
 10
365.4292954721
 20
-229.7554309944
 10
367.2628968525
 20
-234.1376906323
 10
369.2481566706
 20
-238.4892168262
 10
371.3793658817
 20
-242.79749582
 10
373.6503957318
 20
-247.0501382238
 10
376.0547153827
 20
-251.2349146429
 10
378.5854106921
 20
-255.3397908461
 10
381.2352040975
 20
-259.3529623725
 10
383.9964755437
 20
-263.2628884777
 10
386.8612843965
 20
-267.0583253222
 10
389.8213922771
 20
-270.7283583048
 10
392.8682867542
 20
-274.2624334507
 10
395.9932058223
 20
-277.6503877609
 10
399.1871630998
 20
-280.8824784387
 10
402.4409736703
 20
-283.9494109072
 10
405.7452804966
 20
-286.8423655375
 10
409.0905813284
 20
-289.5530230118
 10
412.4672560285
 20
-292.0735882471
 10
415.865594237
 20
-294.3968128121
 10
419.2758232961
 20
-296.516015771
 10
422.6881363534
 20
-298.4251028967
 10
426.0927205631
 20
-300.1185841954
 10
429.4797853058
 20
-301.5915896947
 10
432.839590343
 20
-302.8398834482
 10
436.1624738272
 20
-303.8598757168
 10
439.4388800871
 20
-304.6486332915
 10
442.6593871065
 20
-305.2038879293
 10
445.8147336197
 20
-305.5240428749
 10
448.8958457441
 20
-305.6081774536
 10
451.8938630744
 20
-305.456049718
 10
454.8001641619
 20
-305.0680971445
 10
457.6063913084
 20
-304.4454353748
 10
460.3044745995
 20
-303.5898550077
 10
462.8866551121
 20
-302.5038164498
 10
465.3455072268
 20
-301.1904428404
 10
467.6739599815
 20
-299.65351107
 10
469.8653174059
 20
-297.8974409187
 10
471.9132777767
 20
-295.9272823467
 10
473.8119517403
 20
-293.7487009721
 10
475.5558792483
 20
-291.3679617774
 10
477.1400452593
 20
-288.7919110941
 10
478.5598941607
 20
-286.0279569142
 10
478.8719681153
 20
-285.3459625465
  0
LINE
  5
136
330
1F
100
AcDbEntity
  8
0
  6
Continuous
 62
     7
370
    25
100
AcDbLine
 10
394.8002656158
 20
-173.1419002196
 30
0.0
 11
356.754958341
 21
-195.1049886119
 31
0.0
  0
LINE
  5
137
330
1F
100
AcDbEntity
  8
0
  6
Continuous
 62
     7
370
    25
100
AcDbLine
 10
418.8821714412
 20
-134.6330465252
 30
0.0
 11
305.7450864513
 21
-199.945695471
 31
0.0
  0
LINE
  5
138
330
1F
100
AcDbEntity
  8
0
  6
Continuous
 62
     7
370
    25
100
AcDbLine
 10
418.8821714412
 20
-140.3488322084
 30
0.0
 11
305.7450864513
 21
-205.6614811542
 31
0.0
  0
LINE
  5
139
330
1F
100
AcDbEntity
  8
0
  6
Continuous
 62
     7
370
    25
100
AcDbLine
 10
305.7450864513
 20
-199.945695471
 30
0.0
 11
305.7450864513
 21
-205.6614811542
 31
0.0
  0
LINE
  5
13A
330
1F
100
AcDbEntity
  8
0
  6
Continuous
 62
     7
370
    25
100
AcDbLine
 10
305.7450864513
 20
-205.6614811542
 30
0.0
 11
316.3516881691
 21
-211.7845419929
 31
0.0
  0
LINE
  5
13B
330
1F
100
AcDbEntity
  8
0
  6
Continuous
 62
     7
370
    25
100
AcDbLine
 10
418.8821714412
 20
-131.3668832776
 30
0.0
 11
305.7450864513
 21
-196.6795322234
 31
0.0
  0
LINE
  5
13C
330
1F
100
AcDbEntity
  8
0
  6
Continuous
 62
     7
370
    25
100
AcDbLine
 10
305.7450864513
 20
-196.6795322234
 30
0.0
 11
308.5739733124
 21
-198.3126138472
 31
0.0
  0
LINE
  5
13D
330
1F
100
AcDbEntity
  8
0
  6
Continuous
 62
     7
370
    25
100
AcDbLine
 10
418.8821714412
 20
-125.6510975944
 30
0.0
 11
305.7450864513
 21
-190.9637465402
 31
0.0
  0
LINE
  5
13E
330
1F
100
AcDbEntity
  8
0
  6
Continuous
 62
     7
370
    25
100
AcDbLine
 10
305.7450864513
 20
-190.9637465402
 30
0.0
 11
305.7450864513
 21
-196.6795322234
 31
0.0
  0
LINE
  5
13F
330
1F
100
AcDbEntity
  8
0
  6
Continuous
 62
     7
370
    25
100
AcDbLine
 10
356.754958341
 20
-195.1049886119
 30
0.0
 11
351.7766154375
 21
-192.2310524271
 31
0.0
  0
LINE
  5
140
330
1F
100
AcDbEntity
  8
0
  6
Continuous
 62
     7
370
    25
100
AcDbLine
 10
482.521781748
 20
-292.1147224832
 30
0.0
 11
482.521781748
 21
-286.2877474185
 31
0.0
  0
ARC
  5
141
330
1F
100
AcDbEntity
  8
0
  6
Continuous
 62
     7
370
    25
100
AcDbCircle
 10
487.2143891004
 20
-91.5268293173
 30
0.0
 40
3.520574949456714
100
AcDbArc
 50
114.3746582936
 51
174.3052007488
  0
LWPOLYLINE
  5
142
330
1F
100
AcDbEntity
  8
0
  6
Continuous
 62
     7
370
    25
100
AcDbPolyline
 90
       13
 70
   128
 43
0.0
 10
497.711189663
 20
-91.177484679
 10
497.5766866258
 20
-90.3891219595
 10
497.1783463906
 20
-89.6310555772
 10
496.5314769491
 20
-88.932417598
 10
495.6609371313
 20
-88.3200562876
 10
494.6001812941
 20
-87.8175043479
 10
493.3899736895
 20
-87.4440745681
 10
492.0768219171
 20
-87.214117645
 10
490.711189663
 20
-87.1364706944
 10
489.3455574089
 20
-87.214117645
 10
488.0324056364
 20
-87.4440745681
 10
486.8221980318
 20
-87.8175043479
 10
485.7614421947
 20
-88.3200562876
  0
LWPOLYLINE
  5
143
330
1F
100
AcDbEntity
  8
0
  6
Continuous
 62
     7
370
    25
100
AcDbPolyline
 90
       28
 70
   128
 43
0.0
 10
418.9398513725
 20
-63.6166778017
 10
421.0261331394
 20
-62.5158214734
 10
423.2749534451
 20
-61.5273570927
 10
425.6682061109
 20
-60.6592431936
 10
428.1866220735
 20
-59.9184693187
 10
430.8099245283
 20
-59.3109997436
 10
433.5169921866
 20
-58.8417254563
 10
436.2860293311
 20
-58.5144247774
 10
439.0947413031
 20
-58.3317329394
 10
441.9205140052
 20
-58.2951208697
 10
444.7405959772
 20
-58.4048833471
 10
447.5322815771
 20
-58.6601366286
 10
450.273093794
 20
-59.0588255649
 10
452.9409652196
 20
-59.5977401472
 10
455.5144157217
 20
-60.2725413521
 10
457.9727253901
 20
-61.0777960771
 10
460.2961013609
 20
-62.0070208845
 10
462.4658371768
 20
-63.0527342027
 10
464.4644634008
 20
-64.2065165629
 10
466.2758882697
 20
-65.4590783879
 10
467.8855272556
 20
-66.8003347863
 10
469.2804204918
 20
-68.2194867504
 10
470.4493371183
 20
-69.705108103
 10
471.3828657055
 20
-71.2452374944
 10
472.0734900302
 20
-72.8274747083
 10
472.5156495916
 20
-74.4390805012
 10
472.7057843806
 20
-76.0670791706
 10
472.7137149799
 20
-76.4751055629
  0
LWPOLYLINE
  5
144
330
1F
100
AcDbEntity
  8
0
  6
Continuous
 62
     7
370
    25
100
AcDbPolyline
 90
       10
 70
   128
 43
0.0
 10
409.7137149799
 20
-76.4751055629
 10
409.785066416
 20
-75.251848097
 10
410.1015322512
 20
-73.6304131888
 10
410.668495088
 20
-72.0318820709
 10
411.4813900752
 20
-70.4691251761
 10
412.5336722602
 20
-68.9547249038
 10
413.8168692855
 20
-67.5008743147
 10
415.3206496033
 20
-66.1192789588
 10
417.0329056586
 20
-64.8210626296
 10
418.9398513725
 20
-63.6166778017
  0
ENDSEC
  0
SECTION
  2
OBJECTS
  0
DICTIONARY
  5
C
330
0
100
AcDbDictionary
281
     1
  3
ACAD_GROUP
350
D
  3
ACAD_LAYOUT
350
1A
  3
ACAD_MLINESTYLE
350
17
  3
ACAD_PLOTSETTINGS
350
19
  3
ACAD_PLOTSTYLENAME
350
E
  3
ACAD_SCALELIST
350
47
  3
DWGPROPS
350
145
  0
DICTIONARY
  5
D
102
{ACAD_REACTORS
330
C
102
}
330
C
100
AcDbDictionary
281
     1
  0
DICTIONARY
  5
1A
102
{ACAD_REACTORS
330
C
102
}
330
C
100
AcDbDictionary
281
     1
  3
Layout1
350
1E
  3
Layout2
350
26
  3
Model
350
22
  0
DICTIONARY
  5
17
102
{ACAD_REACTORS
330
C
102
}
330
C
100
AcDbDictionary
281
     1
  3
Standard
350
18
  0
DICTIONARY
  5
19
102
{ACAD_REACTORS
330
C
102
}
330
C
100
AcDbDictionary
281
     1
  0
ACDBDICTIONARYWDFLT
  5
E
102
{ACAD_REACTORS
330
C
102
}
330
C
100
AcDbDictionary
281
     1
  3
Normal
350
F
100
AcDbDictionaryWithDefault
340
F
  0
DICTIONARY
  5
47
102
{ACAD_REACTORS
330
C
102
}
330
C
100
AcDbDictionary
281
     1
  3
A0
350
48
  3
A1
350
49
  3
A2
350
4A
  3
A3
350
4B
  3
A4
350
4C
  3
A5
350
4D
  3
A6
350
4E
  3
A7
350
4F
  3
A8
350
50
  3
A9
350
51
  3
B0
350
52
  3
B1
350
53
  3
B2
350
54
  3
B3
350
55
  3
B4
350
56
  3
B5
350
57
  3
B6
350
58
  3
B7
350
59
  3
B8
350
5A
  3
B9
350
5B
  3
C0
350
5C
  3
C1
350
5D
  3
C2
350
5E
  3
C3
350
5F
  3
C4
350
60
  3
C5
350
61
  3
C6
350
62
  3
C7
350
63
  3
C8
350
64
  3
C9
350
65
  3
D0
350
66
  3
D1
350
67
  3
D2
350
68
  0
XRECORD
  5
145
102
{ACAD_REACTORS
330
C
102
}
330
C
100
AcDbXrecord
280
     1
  1
DWGPROPS COOKIE
  2

  3

  4

  6

  7

  8
b.kav
  9

300
=
301
=
302
=
303
=
304
=
305
=
306
=
307
=
308
=
309
=
 40
0.0
 41
2459741.489539954
 42
2459741.489540139
  1

 90
        0
  0
LAYOUT
  5
1E
102
{ACAD_REACTORS
330
1A
102
}
330
1A
100
AcDbPlotSettings
  1

  2
none_device
  4

  6

 40
0.0
 41
0.0
 42
0.0
 43
0.0
 44
0.0
 45
0.0
 46
0.0
 47
0.0
 48
0.0
 49
0.0
140
0.0
141
0.0
142
1.0
143
1.0
 70
   688
 72
     1
 73
     0
 74
     5
  7

 75
    16
147
1.0
148
0.0
149
0.0
100
AcDbLayout
  1
Layout1
 70
     1
 71
     1
 10
0.0
 20
0.0
 11
420.0
 21
297.0
 12
0.0
 22
0.0
 32
0.0
 14
1.0000000000E+20
 24
1.0000000000E+20
 34
1.0000000000E+20
 15
-1.0000000000E+20
 25
-1.0000000000E+20
 35
-1.0000000000E+20
146
0.0
 13
0.0
 23
0.0
 33
0.0
 16
1.0
 26
0.0
 36
0.0
 17
0.0
 27
1.0
 37
0.0
 76
     0
330
1B
  0
LAYOUT
  5
26
102
{ACAD_REACTORS
330
1A
102
}
330
1A
100
AcDbPlotSettings
  1

  2
none_device
  4

  6

 40
0.0
 41
0.0
 42
0.0
 43
0.0
 44
0.0
 45
0.0
 46
0.0
 47
0.0
 48
0.0
 49
0.0
140
0.0
141
0.0
142
1.0
143
1.0
 70
   688
 72
     1
 73
     0
 74
     5
  7

 75
    16
147
1.0
148
0.0
149
0.0
100
AcDbLayout
  1
Layout2
 70
     1
 71
     2
 10
0.0
 20
0.0
 11
0.0
 21
0.0
 12
0.0
 22
0.0
 32
0.0
 14
0.0
 24
0.0
 34
0.0
 15
0.0
 25
0.0
 35
0.0
146
0.0
 13
0.0
 23
0.0
 33
0.0
 16
1.0
 26
0.0
 36
0.0
 17
0.0
 27
1.0
 37
0.0
 76
     0
330
23
  0
LAYOUT
  5
22
102
{ACAD_REACTORS
330
1A
102
}
330
1A
100
AcDbPlotSettings
  1

  2
none_device
  4
Letter_(8.50_x_11.00_Inches)
  6

 40
6.35
 41
6.35
 42
6.35000508
 43
6.35000508
 44
215.9
 45
279.4
 46
0.0
 47
0.0
 48
0.0
 49
0.0
140
0.0
141
0.0
142
1.0
143
1.0
 70
  1712
 72
     1
 73
     0
 74
     0
  7

 75
     0
147
1.0
148
0.0
149
0.0
100
AcDbLayout
  1
Model
 70
     1
 71
     0
 10
0.0
 20
0.0
 11
279.4
 21
215.9
 12
0.0
 22
0.0
 32
0.0
 14
0.0
 24
0.0
 34
0.0
 15
279.4
 25
215.9
 35
0.0
146
0.0
 13
0.0
 23
0.0
 33
0.0
 16
1.0
 26
0.0
 36
0.0
 17
0.0
 27
1.0
 37
0.0
 76
     0
330
1F
331
29
  0
MLINESTYLE
  5
18
102
{ACAD_REACTORS
330
17
102
}
330
17
100
AcDbMlineStyle
  2
Standard
 70
     0
  3

 62
   256
 51
90.0
 52
90.0
 71
     2
 49
0.5
 62
   256
  6
BYLAYER
 49
-0.5
 62
   256
  6
BYLAYER
  0
ACDBPLACEHOLDER
  5
F
102
{ACAD_REACTORS
330
E
102
}
330
E
  0
SCALE
  5
48
102
{ACAD_REACTORS
330
47
102
}
330
47
100
AcDbScale
 70
     0
300
1:1
140
1.0
141
1.0
290
     1
  0
SCALE
  5
49
102
{ACAD_REACTORS
330
47
102
}
330
47
100
AcDbScale
 70
     0
300
1:2
140
1.0
141
2.0
290
     0
  0
SCALE
  5
4A
102
{ACAD_REACTORS
330
47
102
}
330
47
100
AcDbScale
 70
     0
300
1:4
140
1.0
141
4.0
290
     0
  0
SCALE
  5
4B
102
{ACAD_REACTORS
330
47
102
}
330
47
100
AcDbScale
 70
     0
300
1:5
140
1.0
141
5.0
290
     0
  0
SCALE
  5
4C
102
{ACAD_REACTORS
330
47
102
}
330
47
100
AcDbScale
 70
     0
300
1:8
140
1.0
141
8.0
290
     0
  0
SCALE
  5
4D
102
{ACAD_REACTORS
330
47
102
}
330
47
100
AcDbScale
 70
     0
300
1:10
140
1.0
141
10.0
290
     0
  0
SCALE
  5
4E
102
{ACAD_REACTORS
330
47
102
}
330
47
100
AcDbScale
 70
     0
300
1:16
140
1.0
141
16.0
290
     0
  0
SCALE
  5
4F
102
{ACAD_REACTORS
330
47
102
}
330
47
100
AcDbScale
 70
     0
300
1:20
140
1.0
141
20.0
290
     0
  0
SCALE
  5
50
102
{ACAD_REACTORS
330
47
102
}
330
47
100
AcDbScale
 70
     0
300
1:30
140
1.0
141
30.0
290
     0
  0
SCALE
  5
51
102
{ACAD_REACTORS
330
47
102
}
330
47
100
AcDbScale
 70
     0
300
1:40
140
1.0
141
40.0
290
     0
  0
SCALE
  5
52
102
{ACAD_REACTORS
330
47
102
}
330
47
100
AcDbScale
 70
     0
300
1:50
140
1.0
141
50.0
290
     0
  0
SCALE
  5
53
102
{ACAD_REACTORS
330
47
102
}
330
47
100
AcDbScale
 70
     0
300
1:100
140
1.0
141
100.0
290
     0
  0
SCALE
  5
54
102
{ACAD_REACTORS
330
47
102
}
330
47
100
AcDbScale
 70
     0
300
2:1
140
2.0
141
1.0
290
     0
  0
SCALE
  5
55
102
{ACAD_REACTORS
330
47
102
}
330
47
100
AcDbScale
 70
     0
300
4:1
140
4.0
141
1.0
290
     0
  0
SCALE
  5
56
102
{ACAD_REACTORS
330
47
102
}
330
47
100
AcDbScale
 70
     0
300
8:1
140
8.0
141
1.0
290
     0
  0
SCALE
  5
57
102
{ACAD_REACTORS
330
47
102
}
330
47
100
AcDbScale
 70
     0
300
10:1
140
10.0
141
1.0
290
     0
  0
SCALE
  5
58
102
{ACAD_REACTORS
330
47
102
}
330
47
100
AcDbScale
 70
     0
300
100:1
140
100.0
141
1.0
290
     0
  0
SCALE
  5
59
102
{ACAD_REACTORS
330
47
102
}
330
47
100
AcDbScale
 70
     0
300
1/128" = 1'-0"
140
0.0078125
141
12.0
290
     0
  0
SCALE
  5
5A
102
{ACAD_REACTORS
330
47
102
}
330
47
100
AcDbScale
 70
     0
300
1/64" = 1'-0"
140
0.015625
141
12.0
290
     0
  0
SCALE
  5
5B
102
{ACAD_REACTORS
330
47
102
}
330
47
100
AcDbScale
 70
     0
300
1/32" = 1'-0"
140
0.03125
141
12.0
290
     0
  0
SCALE
  5
5C
102
{ACAD_REACTORS
330
47
102
}
330
47
100
AcDbScale
 70
     0
300
1/16" = 1'-0"
140
0.0625
141
12.0
290
     0
  0
SCALE
  5
5D
102
{ACAD_REACTORS
330
47
102
}
330
47
100
AcDbScale
 70
     0
300
3/32" = 1'-0"
140
0.09375
141
12.0
290
     0
  0
SCALE
  5
5E
102
{ACAD_REACTORS
330
47
102
}
330
47
100
AcDbScale
 70
     0
300
1/8" = 1'-0"
140
0.125
141
12.0
290
     0
  0
SCALE
  5
5F
102
{ACAD_REACTORS
330
47
102
}
330
47
100
AcDbScale
 70
     0
300
3/16" = 1'-0"
140
0.1875
141
12.0
290
     0
  0
SCALE
  5
60
102
{ACAD_REACTORS
330
47
102
}
330
47
100
AcDbScale
 70
     0
300
1/4" = 1'-0"
140
0.25
141
12.0
290
     0
  0
SCALE
  5
61
102
{ACAD_REACTORS
330
47
102
}
330
47
100
AcDbScale
 70
     0
300
3/8" = 1'-0"
140
0.375
141
12.0
290
     0
  0
SCALE
  5
62
102
{ACAD_REACTORS
330
47
102
}
330
47
100
AcDbScale
 70
     0
300
1/2" = 1'-0"
140
0.5
141
12.0
290
     0
  0
SCALE
  5
63
102
{ACAD_REACTORS
330
47
102
}
330
47
100
AcDbScale
 70
     0
300
3/4" = 1'-0"
140
0.75
141
12.0
290
     0
  0
SCALE
  5
64
102
{ACAD_REACTORS
330
47
102
}
330
47
100
AcDbScale
 70
     0
300
1" = 1'-0"
140
1.0
141
12.0
290
     0
  0
SCALE
  5
65
102
{ACAD_REACTORS
330
47
102
}
330
47
100
AcDbScale
 70
     0
300
1-1/2" = 1'-0"
140
1.5
141
12.0
290
     0
  0
SCALE
  5
66
102
{ACAD_REACTORS
330
47
102
}
330
47
100
AcDbScale
 70
     0
300
3" = 1'-0"
140
3.0
141
12.0
290
     0
  0
SCALE
  5
67
102
{ACAD_REACTORS
330
47
102
}
330
47
100
AcDbScale
 70
     0
300
6" = 1'-0"
140
6.0
141
12.0
290
     0
  0
SCALE
  5
68
102
{ACAD_REACTORS
330
47
102
}
330
47
100
AcDbScale
 70
     0
300
1'-0" = 1'-0"
140
12.0
141
12.0
290
     0
  0
ENDSEC
  0
EOF
